999
dxflib 2.2.0.0
  0
SECTION
  2
HEADER
  9
$ACADVER
  1
AC1015
  9
$HANDSEED
  5
FFFF
  9
$DIMASZ
 40
2500.0
  9
$PLIMMIN
 10
0.0
 20
0.0
  9
$DIMEXE
 40
1250.0
  9
$DIMGAP
 40
625.0
  9
$PLIMMAX
 10
210000.0
 20
297000.0
  9
$INSUNITS
 70
13
  9
$DIMSTYLE
  2
Standard
  9
$CLAYER
  8
2
  9
$DIMEXO
 40
625.0
  9
$DIMTXT
 40
2500.0
  9
$CLAYER
  8
2
  0
ENDSEC
  0
SECTION
  2
TABLES
  0
TABLE
  2
VPORT
  5
8
100
AcDbSymbolTable
 70
1
  0
VPORT
  5
30
100
AcDbSymbolTableRecord
100
AcDbViewportTableRecord
  2
*Active
 70
0
 10
0.0
 20
0.0
 11
1.0
 21
1.0
 12
286.3055555555554861
 22
148.5
 13
0.0
 23
0.0
 14
10.0
 24
10.0
 15
10.0
 25
10.0
 16
0.0
 26
0.0
 36
1.0
 17
0.0
 27
0.0
 37
0.0
 40
297.0
 41
1.92798353909465
 42
50.0
 43
0.0
 44
0.0
 50
0.0
 51
0.0
 71
0
 72
100
 73
1
 74
3
 75
1
 76
1
 77
0
 78
0
281
0
 65
1
110
0.0
120
0.0
130
0.0
111
1.0
121
0.0
131
0.0
112
0.0
122
1.0
132
0.0
 79
0
146
0.0
  0
ENDTAB
  0
TABLE
  2
LTYPE
  5
5
100
AcDbSymbolTable
 70
21
  0
LTYPE
  5
14
100
AcDbSymbolTableRecord
100
AcDbLinetypeTableRecord
  2
ByBlock
 70
0
  3

 72
65
 73
0
 40
0.0
  0
LTYPE
  5
15
100
AcDbSymbolTableRecord
100
AcDbLinetypeTableRecord
  2
ByLayer
 70
0
  3

 72
65
 73
0
 40
0.0
  0
LTYPE
  5
16
100
AcDbSymbolTableRecord
100
AcDbLinetypeTableRecord
  2
CONTINUOUS
 70
0
  3
Solid line
 72
65
 73
0
 40
0.0
  0
LTYPE
  5
31
100
AcDbSymbolTableRecord
100
AcDbLinetypeTableRecord
  2
DOT
 70
0
  3
Dot . . . . . . . . . . . . . . . . . . . . . .
 72
65
 73
2
 40
6.3499999999999996
 49
0.0
 74
0
 49
-6.3499999999999996
 74
0
  0
LTYPE
  5
32
100
AcDbSymbolTableRecord
100
AcDbLinetypeTableRecord
  2
DOT2
 70
0
  3
Dot (.5x) .....................................
 72
65
 73
2
 40
3.1749999999999998
 49
0.0
 74
0
 49
-3.1749999999999998
 74
0
  0
LTYPE
  5
33
100
AcDbSymbolTableRecord
100
AcDbLinetypeTableRecord
  2
DOTX2
 70
0
  3
Dot (2x) .  .  .  .  .  .  .  .  .  .  .  .  .
 72
65
 73
2
 40
12.6999999999999993
 49
0.0
 74
0
 49
-12.6999999999999993
 74
0
  0
LTYPE
  5
34
100
AcDbSymbolTableRecord
100
AcDbLinetypeTableRecord
  2
DASHED
 70
0
  3
Dashed __ __ __ __ __ __ __ __ __ __ __ __ __ _
 72
65
 73
2
 40
19.0500000000000007
 49
12.6999999999999993
 74
0
 49
-6.3499999999999996
 74
0
  0
LTYPE
  5
35
100
AcDbSymbolTableRecord
100
AcDbLinetypeTableRecord
  2
DASHED2
 70
0
  3
Dashed (.5x) _ _ _ _ _ _ _ _ _ _ _ _ _ _ _ _ _
 72
65
 73
2
 40
9.5250000000000004
 49
6.3499999999999996
 74
0
 49
-3.1749999999999998
 74
0
  0
LTYPE
  5
36
100
AcDbSymbolTableRecord
100
AcDbLinetypeTableRecord
  2
DASHEDX2
 70
0
  3
Dashed (2x) ____  ____  ____  ____  ____  ___
 72
65
 73
2
 40
38.1000000000000014
 49
25.3999999999999986
 74
0
 49
-12.6999999999999993
 74
0
  0
LTYPE
  5
37
100
AcDbSymbolTableRecord
100
AcDbLinetypeTableRecord
  2
DASHDOT
 70
0
  3
Dash dot __ . __ . __ . __ . __ . __ . __ . __
 72
65
 73
4
 40
25.3999999999999986
 49
12.6999999999999993
 74
0
 49
-6.3499999999999996
 74
0
 49
0.0
 74
0
 49
-6.3499999999999996
 74
0
  0
LTYPE
  5
38
100
AcDbSymbolTableRecord
100
AcDbLinetypeTableRecord
  2
DASHDOT2
 70
0
  3
Dash dot (.5x) _._._._._._._._._._._._._._._.
 72
65
 73
4
 40
12.6999999999999993
 49
6.3499999999999996
 74
0
 49
-3.1749999999999998
 74
0
 49
0.0
 74
0
 49
-3.1749999999999998
 74
0
  0
LTYPE
  5
39
100
AcDbSymbolTableRecord
100
AcDbLinetypeTableRecord
  2
DASHDOTX2
 70
0
  3
Dash dot (2x) ____  .  ____  .  ____  .  ___
 72
65
 73
4
 40
50.7999999999999972
 49
25.3999999999999986
 74
0
 49
-12.6999999999999993
 74
0
 49
0.0
 74
0
 49
-12.6999999999999993
 74
0
  0
LTYPE
  5
3A
100
AcDbSymbolTableRecord
100
AcDbLinetypeTableRecord
  2
DIVIDE
 70
0
  3
Divide ____ . . ____ . . ____ . . ____ . . ____
 72
65
 73
6
 40
31.75
 49
12.6999999999999993
 74
0
 49
-6.3499999999999996
 74
0
 49
0.0
 74
0
 49
-6.3499999999999996
 74
0
 49
0.0
 74
0
 49
-6.3499999999999996
 74
0
  0
LTYPE
  5
3B
100
AcDbSymbolTableRecord
100
AcDbLinetypeTableRecord
  2
DIVIDE2
 70
0
  3
Divide (.5x) __..__..__..__..__..__..__..__.._
 72
65
 73
6
 40
15.875
 49
6.3499999999999996
 74
0
 49
-3.1749999999999998
 74
0
 49
0.0
 74
0
 49
-3.1749999999999998
 74
0
 49
0.0
 74
0
 49
-3.1749999999999998
 74
0
  0
LTYPE
  5
3C
100
AcDbSymbolTableRecord
100
AcDbLinetypeTableRecord
  2
DIVIDEX2
 70
0
  3
Divide (2x) ________  .  .  ________  .  .  _
 72
65
 73
6
 40
63.5
 49
25.3999999999999986
 74
0
 49
-12.6999999999999993
 74
0
 49
0.0
 74
0
 49
-12.6999999999999993
 74
0
 49
0.0
 74
0
 49
-12.6999999999999993
 74
0
  0
LTYPE
  5
3D
100
AcDbSymbolTableRecord
100
AcDbLinetypeTableRecord
  2
CENTER
 70
0
  3
Center ____ _ ____ _ ____ _ ____ _ ____ _ ____
 72
65
 73
4
 40
50.7999999999999972
 49
31.75
 74
0
 49
-6.3499999999999996
 74
0
 49
6.3499999999999996
 74
0
 49
-6.3499999999999996
 74
0
  0
LTYPE
  5
3E
100
AcDbSymbolTableRecord
100
AcDbLinetypeTableRecord
  2
CENTER2
 70
0
  3
Center (.5x) ___ _ ___ _ ___ _ ___ _ ___ _ ___
 72
65
 73
4
 40
28.5749999999999993
 49
19.0500000000000007
 74
0
 49
-3.1749999999999998
 74
0
 49
3.1749999999999998
 74
0
 49
-3.1749999999999998
 74
0
  0
LTYPE
  5
3F
100
AcDbSymbolTableRecord
100
AcDbLinetypeTableRecord
  2
CENTERX2
 70
0
  3
Center (2x) ________  __  ________  __  _____
 72
65
 73
4
 40
101.5999999999999943
 49
63.5
 74
0
 49
-12.6999999999999993
 74
0
 49
12.6999999999999993
 74
0
 49
-12.6999999999999993
 74
0
  0
LTYPE
  5
40
100
AcDbSymbolTableRecord
100
AcDbLinetypeTableRecord
  2
BORDER
 70
0
  3
Border __ __ . __ __ . __ __ . __ __ . __ __ .
 72
65
 73
6
 40
44.4500000000000028
 49
12.6999999999999993
 74
0
 49
-6.3499999999999996
 74
0
 49
12.6999999999999993
 74
0
 49
-6.3499999999999996
 74
0
 49
0.0
 74
0
 49
-6.3499999999999996
 74
0
  0
LTYPE
  5
41
100
AcDbSymbolTableRecord
100
AcDbLinetypeTableRecord
  2
BORDER2
 70
0
  3
Border (.5x) __.__.__.__.__.__.__.__.__.__.__.
 72
65
 73
6
 40
22.2250000000000014
 49
6.3499999999999996
 74
0
 49
-3.1749999999999998
 74
0
 49
6.3499999999999996
 74
0
 49
-3.1749999999999998
 74
0
 49
0.0
 74
0
 49
-3.1749999999999998
 74
0
  0
LTYPE
  5
42
100
AcDbSymbolTableRecord
100
AcDbLinetypeTableRecord
  2
BORDERX2
 70
0
  3
Border (2x) ____  ____  .  ____  ____  .  ___
 72
65
 73
6
 40
88.9000000000000057
 49
25.3999999999999986
 74
0
 49
-12.6999999999999993
 74
0
 49
25.3999999999999986
 74
0
 49
-12.6999999999999993
 74
0
 49
0.0
 74
0
 49
-12.6999999999999993
 74
0
  0
ENDTAB
  0
TABLE
  2
LAYER
  5
2
100
AcDbSymbolTable
 70
5
  0
LAYER
  5
10
100
AcDbSymbolTableRecord
100
AcDbLayerTableRecord
  2
0
 70
0
 62
7
420
0
  6
CONTINUOUS
370
-3
390
F
  0
LAYER
  5
43
100
AcDbSymbolTableRecord
100
AcDbLayerTableRecord
  2
1
 70
0
 62
7
420
0
  6
CONTINUOUS
370
-3
390
F
  0
LAYER
  5
44
100
AcDbSymbolTableRecord
100
AcDbLayerTableRecord
  2
2
 70
0
 62
7
420
0
  6
CONTINUOUS
370
-3
390
F
  0
LAYER
  5
45
100
AcDbSymbolTableRecord
100
AcDbLayerTableRecord
  2
3
 70
0
 62
7
420
0
  6
CONTINUOUS
370
-3
390
F
  0
LAYER
  5
46
100
AcDbSymbolTableRecord
100
AcDbLayerTableRecord
  2
write
 70
0
 62
7
420
0
  6
CONTINUOUS
370
-3
390
F
  0
ENDTAB
  0
TABLE
  2
STYLE
  5
3
100
AcDbSymbolTable
 70
1
  0
STYLE
  5
11
100
AcDbSymbolTableRecord
100
AcDbTextStyleTableRecord
  2
Standard
 70
0
 40
0.0
 41
0.75
 50
0.0
 71
0
 42
2.5
  3
txt
  4

  0
ENDTAB
  0
TABLE
  2
VIEW
  5
6
100
AcDbSymbolTable
 70
0
  0
ENDTAB
  0
TABLE
  2
UCS
  5
7
100
AcDbSymbolTable
 70
0
  0
ENDTAB
  0
TABLE
  2
APPID
  5
9
100
AcDbSymbolTable
 70
1
  0
APPID
  5
12
100
AcDbSymbolTableRecord
100
AcDbRegAppTableRecord
  2
ACAD
 70
0
  0
ENDTAB
  0
TABLE
  2
DIMSTYLE
  5
A
100
AcDbSymbolTable
 70
1
100
AcDbDimStyleTable
 71
0
  0
DIMSTYLE
105
27
100
AcDbSymbolTableRecord
100
AcDbDimStyleTableRecord
  2
Standard
 41
2500.0
 42
625.0
 43
3.75
 44
1250.0
 70
0
 73
0
 74
0
 77
1
 78
8
140
2500.0
141
2.5
143
0.03937007874016
147
625.0
171
3
172
1
271
2
272
2
274
3
278
44
283
0
284
8
340
11
  0
ENDTAB
  0
TABLE
  2
BLOCK_RECORD
  5
1
100
AcDbSymbolTable
 70
1
  0
BLOCK_RECORD
  5
1F
100
AcDbSymbolTableRecord
100
AcDbBlockTableRecord
  2
*Model_Space
340
22
  0
BLOCK_RECORD
  5
1B
100
AcDbSymbolTableRecord
100
AcDbBlockTableRecord
  2
*Paper_Space
340
1E
  0
BLOCK_RECORD
  5
23
100
AcDbSymbolTableRecord
100
AcDbBlockTableRecord
  2
*Paper_Space0
340
26
  0
ENDTAB
  0
ENDSEC
  0
SECTION
  2
BLOCKS
  0
BLOCK
  5
20
100
AcDbEntity
  8
0
100
AcDbBlockBegin
  2
*Model_Space
 70
0
 10
0.0
 20
0.0
 30
0.0
  3
*Model_Space
  1

  0
ENDBLK
  5
21
100
AcDbEntity
  8
0
100
AcDbBlockEnd
  0
BLOCK
  5
1C
100
AcDbEntity
 67
1
  8
0
100
AcDbBlockBegin
  2
*Paper_Space
 70
0
 10
0.0
 20
0.0
 30
0.0
  3
*Paper_Space
  1

  0
ENDBLK
  5
1D
100
AcDbEntity
 67
1
  8
0
100
AcDbBlockEnd
  0
BLOCK
  5
24
100
AcDbEntity
  8
0
100
AcDbBlockBegin
  2
*Paper_Space0
 70
0
 10
0.0
 20
0.0
 30
0.0
  3
*Paper_Space0
  1

  0
ENDBLK
  5
25
100
AcDbEntity
  8
0
100
AcDbBlockEnd
  0
ENDSEC
  0
SECTION
  2
ENTITIES
  0
LWPOLYLINE
  5
47
  8
0
 62
5
420
255
370
-1
  6
ByLayer
100
AcDbEntity
100
AcDbPolyline
 90
4
 70
1
 10
-55.0
 20
55.0
 10
-55.0
 20
45.0
 10
-45.0
 20
45.0
 10
-45.0
 20
55.0
  0
LWPOLYLINE
  5
48
  8
1
 62
5
420
255
370
-1
  6
ByLayer
100
AcDbEntity
100
AcDbPolyline
 90
4
 70
1
 10
45.0
 20
55.0
 10
45.0
 20
45.0
 10
55.0
 20
45.0
 10
55.0
 20
55.0
  0
LWPOLYLINE
  5
49
  8
2
 62
5
420
255
370
-1
  6
ByLayer
100
AcDbEntity
100
AcDbPolyline
 90
4
 70
1
 10
45.0
 20
-45.0
 10
45.0
 20
-55.0
 10
55.0
 20
-55.0
 10
55.0
 20
-45.0
  0
LWPOLYLINE
  5
4A
  8
3
 62
5
420
255
370
-1
  6
ByLayer
100
AcDbEntity
100
AcDbPolyline
 90
4
 70
1
 10
-55.0
 20
-45.0
 10
-55.0
 20
-55.0
 10
-45.0
 20
-55.0
 10
-45.0
 20
-45.0
  0
LWPOLYLINE
  5
4B
  8
write
 62
5
420
255
370
-1
  6
ByLayer
100
AcDbEntity
100
AcDbPolyline
 90
12
 70
1
 10
-6.5
 20
5.0
 10
-6.5
 20
7.0
 10
-5.0
 20
7.0
 10
-5.0
 20
28.0
 10
-11.0
 20
28.0
 10
-11.0
 20
30.0
 10
3.0
 20
30.0
 10
3.0
 20
28.0
 10
-3.0
 20
28.0
 10
-3.0
 20
7.0
 10
-1.5
 20
7.0
 10
-1.5
 20
5.0
  0
LWPOLYLINE
  5
4C
  8
write
 62
5
420
255
370
-1
  6
ByLayer
100
AcDbEntity
100
AcDbPolyline
 90
12
 70
1
 10
-21.0
 20
5.0
 10
-21.0
 20
7.0
 10
-19.5
 20
7.0
 10
-19.5
 20
28.0
 10
-21.0
 20
28.0
 10
-21.0
 20
30.0
 10
-16.0
 20
30.0
 10
-16.0
 20
28.0
 10
-17.5
 20
28.0
 10
-17.5
 20
7.0
 10
-16.0
 20
7.0
 10
-16.0
 20
5.0
  0
LWPOLYLINE
  5
4D
  8
write
 62
5
420
255
370
-1
  6
ByLayer
100
AcDbEntity
100
AcDbPolyline
 90
20
 70
1
 10
-26.0
 20
23.5
 10
-26.0
 20
25.5
 10
-30.5
 20
30.0
 10
-35.5
 20
30.0
 10
-40.0
 20
25.5
 10
-40.0
 20
9.5
 10
-35.5
 20
5.0
 10
-30.5
 20
5.0
 10
-26.0
 20
9.5
 10
-26.0
 20
11.5
 10
-28.0
 20
11.5
 10
-28.0
 20
10.0
 10
-31.0
 20
7.0
 10
-35.0
 20
7.0
 10
-38.0
 20
10.0
 10
-38.0
 20
25.0
 10
-35.0
 20
28.0
 10
-31.0
 20
28.0
 10
-28.0
 20
25.0
 10
-28.0
 20
23.5
  0
LWPOLYLINE
  5
4E
  8
write
 62
5
420
255
370
-1
  6
ByLayer
100
AcDbEntity
100
AcDbPolyline
 90
63
 70
1
 10
-1.2883485545725488
 20
-6.8173397522129502
 10
-3.1681391012627946
 20
-8.7057044955751994
 10
-3.6646259181123568
 20
-10.3258193716106117
 10
-4.8098936165195987
 20
-12.5845077522131898
 10
-4.6057460766965796
 20
-14.1666511858415713
 10
-3.4033170671388966
 20
-15.2175210618336099
 10
-2.065415750154818
 20
-15.1339022295221088
 10
-0.6229908927813588
 20
-15.0084739810548466
 10
-1.7100357128309218
 20
-16.0328046768707821
 10
-1.3128462593512742
 20
-16.3045658818831711
 10
-0.1145002005901991
 20
-16.2591634690274986
 10
3.100823551622323
 20
-15.9019052743372189
 10
5.0108279342065245
 20
-18.1650849008154651
 10
5.219875014985293
 20
-21.8495396995413032
 10
2.9726188966134988
 20
-23.0254295289218902
 10
3.1294042071975765
 20
-24.0184031626210555
 10
3.9394616452153164
 20
-24.3058428986918642
 10
7.2413602861160129
 20
-23.4079856867470397
 10
7.8266921122965734
 20
-23.9933175129275966
 10
6.1710392325287025
 20
-24.729163237268871
 10
5.4519172746497269
 20
-25.2643237640625316
 10
5.6358787057350472
 20
-25.8496555902430885
 10
7.4899956578171967
 20
-25.9561716106208209
 10
9.9506104530088919
 20
-25.9834457219415
 10
11.1646513746315073
 20
-24.4761019469039454
 10
11.6750202241890513
 20
-22.7408478584082943
 10
13.1381603407235907
 20
-21.4847525435823172
 10
15.3496759410033619
 20
-20.5972986902666193
 10
17.7672988974887076
 20
-20.789043858750567
 10
20.2290373207395149
 20
-20.5214635953537368
 10
19.4931915963982441
 20
-22.073429123055341
 10
14.9710851449918607
 20
-23.0367180712839144
 10
14.7302629079347156
 20
-23.9063539273236074
 10
15.9477531063902802
 20
-24.3211033355886883
 10
17.9010890291871192
 20
-24.1739341907204377
 10
21.6873497562522282
 20
-23.1036131371331237
 10
22.5436065991220751
 20
-21.7255747806394623
 10
26.3940578454288826
 20
-24.2209175221255464
 10
26.8840119410041289
 20
-28.1813797946921198
 10
27.5372840684377884
 20
-32.8767732106215718
 10
28.8029988153405085
 20
-36.4289404035421072
 10
31.2935988011813464
 20
-38.3479272778784903
 10
35.0499135339249008
 20
-38.4704158017722975
 10
37.1730479480843101
 20
-36.4289404035421072
 10
36.9280709002966816
 20
-34.4691240212411216
 10
36.0706512330400031
 20
-29.6104125734532531
 10
34.6007889463142604
 20
-26.7523470159309866
 10
33.253415183482339
 20
-25.4049732530990582
 10
32.355166008261051
 20
-23.9351109663733226
 10
33.6081215339245105
 20
-19.7934677522135232
 10
33.7995098525085851
 20
-16.0932935929213272
 10
32.6511799410030008
 20
-10.9513274336283377
 10
31.8345897817109673
 20
-8.0932618761061921
 10
30.5586676578171463
 20
-4.9289750088495214
 10
28.2492486135693497
 20
-2.4409268672565876
 10
24.4342414631268277
 20
-0.1315078230087731
 10
21.9844709852507023
 20
0.3278241415930037
 10
16.7276718348081737
 20
0.3788610265487531
 10
12.3384997286134475
 20
-0.1825447079645262
 10
8.6128071268435029
 20
-1.6626143716813555
 10
6.26511041887888
 20
-2.9895733805309224
 10
3.3049710914452248
 20
-4.3675692743362458
 10
0.6469701229496243
 20
-6.171008641132703
  0
LWPOLYLINE
  5
4F
  8
0
 62
1
420
16711680
370
-1
  6
ByLayer
100
AcDbEntity
100
AcDbPolyline
 90
12
 70
1
 10
-52.5
 20
50.3000000000000043
 10
-52.5
 20
49.7000000000000028
 10
-50.3000000000000043
 20
49.7000000000000028
 10
-50.2999999999999972
 20
47.5000000000000071
 10
-49.6999999999999957
 20
47.5000000000000071
 10
-49.7000000000000028
 20
49.7000000000000028
 10
-47.5
 20
49.7000000000000028
 10
-47.5
 20
50.3000000000000043
 10
-49.7000000000000028
 20
50.3000000000000043
 10
-49.7000000000000028
 20
52.5
 10
-50.2999999999999972
 20
52.5
 10
-50.3000000000000043
 20
50.3000000000000043
  0
LWPOLYLINE
  5
50
  8
1
 62
1
420
16711680
370
-1
  6
ByLayer
100
AcDbEntity
100
AcDbPolyline
 90
12
 70
1
 10
47.5
 20
50.3000000000000043
 10
47.5
 20
49.7000000000000028
 10
49.6999999999999957
 20
49.7000000000000028
 10
49.7000000000000028
 20
47.5000000000000071
 10
50.3000000000000043
 20
47.5000000000000071
 10
50.2999999999999972
 20
49.7000000000000028
 10
52.5
 20
49.7000000000000028
 10
52.5
 20
50.3000000000000043
 10
50.2999999999999972
 20
50.3000000000000043
 10
50.2999999999999972
 20
52.5
 10
49.7000000000000028
 20
52.5
 10
49.6999999999999957
 20
50.3000000000000043
  0
LWPOLYLINE
  5
51
  8
2
 62
1
420
16711680
370
-1
  6
ByLayer
100
AcDbEntity
100
AcDbPolyline
 90
12
 70
1
 10
47.5
 20
-49.6999999999999957
 10
47.5
 20
-50.2999999999999972
 10
49.6999999999999957
 20
-50.2999999999999972
 10
49.7000000000000028
 20
-52.4999999999999929
 10
50.3000000000000043
 20
-52.4999999999999929
 10
50.2999999999999972
 20
-50.2999999999999972
 10
52.5
 20
-50.2999999999999972
 10
52.5
 20
-49.6999999999999957
 10
50.2999999999999972
 20
-49.6999999999999957
 10
50.2999999999999972
 20
-47.5
 10
49.7000000000000028
 20
-47.5
 10
49.6999999999999957
 20
-49.6999999999999957
  0
LWPOLYLINE
  5
52
  8
3
 62
1
420
16711680
370
-1
  6
ByLayer
100
AcDbEntity
100
AcDbPolyline
 90
12
 70
1
 10
-52.5
 20
-49.6999999999999957
 10
-52.5
 20
-50.2999999999999972
 10
-50.3000000000000043
 20
-50.2999999999999972
 10
-50.2999999999999972
 20
-52.4999999999999929
 10
-49.6999999999999957
 20
-52.4999999999999929
 10
-49.7000000000000028
 20
-50.2999999999999972
 10
-47.5
 20
-50.2999999999999972
 10
-47.5
 20
-49.6999999999999957
 10
-49.7000000000000028
 20
-49.6999999999999957
 10
-49.7000000000000028
 20
-47.5
 10
-50.2999999999999972
 20
-47.5
 10
-50.3000000000000043
 20
-49.6999999999999957
  0
ENDSEC
  0
SECTION
  2
OBJECTS
  0
DICTIONARY
  5
C
100
AcDbDictionary
280
0
281
1
  3
ACAD_GROUP
350
D
  3
ACAD_LAYOUT
350
1A
  3
ACAD_MLINESTYLE
350
17
  3
ACAD_PLOTSETTINGS
350
19
  3
ACAD_PLOTSTYLENAME
350
E
  3
AcDbVariableDictionary
350
53
  0
DICTIONARY
  5
D
100
AcDbDictionary
280
0
281
1
  0
ACDBDICTIONARYWDFLT
  5
E
100
AcDbDictionary
281
1
  3
Normal
350
F
100
AcDbDictionaryWithDefault
340
F
  0
ACDBPLACEHOLDER
  5
F
  0
DICTIONARY
  5
17
100
AcDbDictionary
280
0
281
1
  3
Standard
350
18
  0
MLINESTYLE
  5
18
100
AcDbMlineStyle
  2
STANDARD
 70
0
  3

 62
256
 51
90.0
 52
90.0
 71
2
 49
0.5
 62
256
  6
BYLAYER
 49
-0.5
 62
256
  6
BYLAYER
  0
DICTIONARY
  5
19
100
AcDbDictionary
280
0
281
1
  0
DICTIONARY
  5
1A
100
AcDbDictionary
281
1
  3
Layout1
350
1E
  3
Layout2
350
26
  3
Model
350
22
  0
LAYOUT
  5
1E
100
AcDbPlotSettings
  1

  2
C:\Program Files\AutoCAD 2002\plotters\DWF ePlot (optimized for plotting).pc3
  4

  6

 40
0.0
 41
0.0
 42
0.0
 43
0.0
 44
0.0
 45
0.0
 46
0.0
 47
0.0
 48
0.0
 49
0.0
140
0.0
141
0.0
142
1.0
143
1.0
 70
688
 72
0
 73
0
 74
5
  7

 75
16
147
1.0
148
0.0
149
0.0
100
AcDbLayout
  1
Layout1
 70
1
 71
1
 10
0.0
 20
0.0
 11
420.0
 21
297.0
 12
0.0
 22
0.0
 32
0.0
 14
100000000000000000000.0
 24
100000000000000000000.0
 34
100000000000000000000.0
 15
-100000000000000000000.0
 25
-100000000000000000000.0
 35
-100000000000000000000.0
146
0.0
 13
0.0
 23
0.0
 33
0.0
 16
1.0
 26
0.0
 36
0.0
 17
0.0
 27
1.0
 37
0.0
 76
0
330
1B
  0
LAYOUT
  5
22
100
AcDbPlotSettings
  1

  2
C:\Program Files\AutoCAD 2002\plotters\DWF ePlot (optimized for plotting).pc3
  4

  6

 40
0.0
 41
0.0
 42
0.0
 43
0.0
 44
0.0
 45
0.0
 46
0.0
 47
0.0
 48
0.0
 49
0.0
140
0.0
141
0.0
142
1.0
143
1.0
 70
1712
 72
0
 73
0
 74
0
  7

 75
0
147
1.0
148
0.0
149
0.0
100
AcDbLayout
  1
Model
 70
1
 71
0
 10
0.0
 20
0.0
 11
12.0
 21
9.0
 12
0.0
 22
0.0
 32
0.0
 14
0.0
 24
0.0
 34
0.0
 15
0.0
 25
0.0
 35
0.0
146
0.0
 13
0.0
 23
0.0
 33
0.0
 16
1.0
 26
0.0
 36
0.0
 17
0.0
 27
1.0
 37
0.0
 76
0
330
1F
  0
LAYOUT
  5
26
100
AcDbPlotSettings
  1

  2
C:\Program Files\AutoCAD 2002\plotters\DWF ePlot (optimized for plotting).pc3
  4

  6

 40
0.0
 41
0.0
 42
0.0
 43
0.0
 44
0.0
 45
0.0
 46
0.0
 47
0.0
 48
0.0
 49
0.0
140
0.0
141
0.0
142
1.0
143
1.0
 70
688
 72
0
 73
0
 74
5
  7

 75
16
147
1.0
148
0.0
149
0.0
100
AcDbLayout
  1
Layout2
 70
1
 71
2
 10
0.0
 20
0.0
 11
12.0
 21
9.0
 12
0.0
 22
0.0
 32
0.0
 14
0.0
 24
0.0
 34
0.0
 15
0.0
 25
0.0
 35
0.0
146
0.0
 13
0.0
 23
0.0
 33
0.0
 16
1.0
 26
0.0
 36
0.0
 17
0.0
 27
1.0
 37
0.0
 76
0
330
23
  0
DICTIONARY
  5
53
100
AcDbDictionary
281
1
  3
DIMASSOC
350
55
  3
HIDETEXT
350
54
  0
DICTIONARYVAR
  5
54
100
DictionaryVariables
280
0
  1
2
  0
DICTIONARYVAR
  5
55
100
DictionaryVariables
280
0
  1
1
  0
ENDSEC
  0
EOF
