999
dxflib 2.2.0.0
  0
SECTION
  2
HEADER
  9
$ACADVER
  1
AC1015
  9
$HANDSEED
  5
FFFF
  9
$DIMASZ
 40
2500.0
  9
$GRIDMODE
 70
1
  9
$PLIMMIN
 10
0.0
 20
0.0
  9
$DIMEXE
 40
1250.0
  9
$DIMGAP
 40
625.0
  9
$PLIMMAX
 10
210000.0
 20
297000.0
  9
$PSVPSCALE
 40
48.6842105263157805
  9
$PINSBASE
 10
104999.9999999999854481
 20
148500.0
 30
0.0
  9
$INSUNITS
 70
13
  9
$DIMSTYLE
  2
Standard
  9
$CLAYER
  8
grid0
  9
$DIMEXO
 40
625.0
  9
$DIMTXT
 40
2500.0
  9
$CLAYER
  8
3
  0
ENDSEC
  0
SECTION
  2
TABLES
  0
TABLE
  2
VPORT
  5
8
100
AcDbSymbolTable
 70
1
  0
VPORT
  5
30
100
AcDbSymbolTableRecord
100
AcDbViewportTableRecord
  2
*Active
 70
0
 10
0.0
 20
0.0
 11
1.0
 21
1.0
 12
286.3055555555554861
 22
148.5
 13
0.0
 23
0.0
 14
10.0
 24
10.0
 15
10.0
 25
10.0
 16
0.0
 26
0.0
 36
1.0
 17
0.0
 27
0.0
 37
0.0
 40
297.0
 41
1.92798353909465
 42
50.0
 43
0.0
 44
0.0
 50
0.0
 51
0.0
 71
0
 72
100
 73
1
 74
3
 75
1
 76
1
 77
0
 78
0
281
0
 65
1
110
0.0
120
0.0
130
0.0
111
1.0
121
0.0
131
0.0
112
0.0
122
1.0
132
0.0
 79
0
146
0.0
  0
ENDTAB
  0
TABLE
  2
LTYPE
  5
5
100
AcDbSymbolTable
 70
21
  0
LTYPE
  5
14
100
AcDbSymbolTableRecord
100
AcDbLinetypeTableRecord
  2
ByBlock
 70
0
  3

 72
65
 73
0
 40
0.0
  0
LTYPE
  5
15
100
AcDbSymbolTableRecord
100
AcDbLinetypeTableRecord
  2
ByLayer
 70
0
  3

 72
65
 73
0
 40
0.0
  0
LTYPE
  5
16
100
AcDbSymbolTableRecord
100
AcDbLinetypeTableRecord
  2
CONTINUOUS
 70
0
  3
Solid line
 72
65
 73
0
 40
0.0
  0
LTYPE
  5
31
100
AcDbSymbolTableRecord
100
AcDbLinetypeTableRecord
  2
DOT
 70
0
  3
Dot . . . . . . . . . . . . . . . . . . . . . .
 72
65
 73
2
 40
6.3499999999999996
 49
0.0
 74
0
 49
-6.3499999999999996
 74
0
  0
LTYPE
  5
32
100
AcDbSymbolTableRecord
100
AcDbLinetypeTableRecord
  2
DOT2
 70
0
  3
Dot (.5x) .....................................
 72
65
 73
2
 40
3.1749999999999998
 49
0.0
 74
0
 49
-3.1749999999999998
 74
0
  0
LTYPE
  5
33
100
AcDbSymbolTableRecord
100
AcDbLinetypeTableRecord
  2
DOTX2
 70
0
  3
Dot (2x) .  .  .  .  .  .  .  .  .  .  .  .  .
 72
65
 73
2
 40
12.6999999999999993
 49
0.0
 74
0
 49
-12.6999999999999993
 74
0
  0
LTYPE
  5
34
100
AcDbSymbolTableRecord
100
AcDbLinetypeTableRecord
  2
DASHED
 70
0
  3
Dashed __ __ __ __ __ __ __ __ __ __ __ __ __ _
 72
65
 73
2
 40
19.0500000000000007
 49
12.6999999999999993
 74
0
 49
-6.3499999999999996
 74
0
  0
LTYPE
  5
35
100
AcDbSymbolTableRecord
100
AcDbLinetypeTableRecord
  2
DASHED2
 70
0
  3
Dashed (.5x) _ _ _ _ _ _ _ _ _ _ _ _ _ _ _ _ _
 72
65
 73
2
 40
9.5250000000000004
 49
6.3499999999999996
 74
0
 49
-3.1749999999999998
 74
0
  0
LTYPE
  5
36
100
AcDbSymbolTableRecord
100
AcDbLinetypeTableRecord
  2
DASHEDX2
 70
0
  3
Dashed (2x) ____  ____  ____  ____  ____  ___
 72
65
 73
2
 40
38.1000000000000014
 49
25.3999999999999986
 74
0
 49
-12.6999999999999993
 74
0
  0
LTYPE
  5
37
100
AcDbSymbolTableRecord
100
AcDbLinetypeTableRecord
  2
DASHDOT
 70
0
  3
Dash dot __ . __ . __ . __ . __ . __ . __ . __
 72
65
 73
4
 40
25.3999999999999986
 49
12.6999999999999993
 74
0
 49
-6.3499999999999996
 74
0
 49
0.0
 74
0
 49
-6.3499999999999996
 74
0
  0
LTYPE
  5
38
100
AcDbSymbolTableRecord
100
AcDbLinetypeTableRecord
  2
DASHDOT2
 70
0
  3
Dash dot (.5x) _._._._._._._._._._._._._._._.
 72
65
 73
4
 40
12.6999999999999993
 49
6.3499999999999996
 74
0
 49
-3.1749999999999998
 74
0
 49
0.0
 74
0
 49
-3.1749999999999998
 74
0
  0
LTYPE
  5
39
100
AcDbSymbolTableRecord
100
AcDbLinetypeTableRecord
  2
DASHDOTX2
 70
0
  3
Dash dot (2x) ____  .  ____  .  ____  .  ___
 72
65
 73
4
 40
50.7999999999999972
 49
25.3999999999999986
 74
0
 49
-12.6999999999999993
 74
0
 49
0.0
 74
0
 49
-12.6999999999999993
 74
0
  0
LTYPE
  5
3A
100
AcDbSymbolTableRecord
100
AcDbLinetypeTableRecord
  2
DIVIDE
 70
0
  3
Divide ____ . . ____ . . ____ . . ____ . . ____
 72
65
 73
6
 40
31.75
 49
12.6999999999999993
 74
0
 49
-6.3499999999999996
 74
0
 49
0.0
 74
0
 49
-6.3499999999999996
 74
0
 49
0.0
 74
0
 49
-6.3499999999999996
 74
0
  0
LTYPE
  5
3B
100
AcDbSymbolTableRecord
100
AcDbLinetypeTableRecord
  2
DIVIDE2
 70
0
  3
Divide (.5x) __..__..__..__..__..__..__..__.._
 72
65
 73
6
 40
15.875
 49
6.3499999999999996
 74
0
 49
-3.1749999999999998
 74
0
 49
0.0
 74
0
 49
-3.1749999999999998
 74
0
 49
0.0
 74
0
 49
-3.1749999999999998
 74
0
  0
LTYPE
  5
3C
100
AcDbSymbolTableRecord
100
AcDbLinetypeTableRecord
  2
DIVIDEX2
 70
0
  3
Divide (2x) ________  .  .  ________  .  .  _
 72
65
 73
6
 40
63.5
 49
25.3999999999999986
 74
0
 49
-12.6999999999999993
 74
0
 49
0.0
 74
0
 49
-12.6999999999999993
 74
0
 49
0.0
 74
0
 49
-12.6999999999999993
 74
0
  0
LTYPE
  5
3D
100
AcDbSymbolTableRecord
100
AcDbLinetypeTableRecord
  2
CENTER
 70
0
  3
Center ____ _ ____ _ ____ _ ____ _ ____ _ ____
 72
65
 73
4
 40
50.7999999999999972
 49
31.75
 74
0
 49
-6.3499999999999996
 74
0
 49
6.3499999999999996
 74
0
 49
-6.3499999999999996
 74
0
  0
LTYPE
  5
3E
100
AcDbSymbolTableRecord
100
AcDbLinetypeTableRecord
  2
CENTER2
 70
0
  3
Center (.5x) ___ _ ___ _ ___ _ ___ _ ___ _ ___
 72
65
 73
4
 40
28.5749999999999993
 49
19.0500000000000007
 74
0
 49
-3.1749999999999998
 74
0
 49
3.1749999999999998
 74
0
 49
-3.1749999999999998
 74
0
  0
LTYPE
  5
3F
100
AcDbSymbolTableRecord
100
AcDbLinetypeTableRecord
  2
CENTERX2
 70
0
  3
Center (2x) ________  __  ________  __  _____
 72
65
 73
4
 40
101.5999999999999943
 49
63.5
 74
0
 49
-12.6999999999999993
 74
0
 49
12.6999999999999993
 74
0
 49
-12.6999999999999993
 74
0
  0
LTYPE
  5
40
100
AcDbSymbolTableRecord
100
AcDbLinetypeTableRecord
  2
BORDER
 70
0
  3
Border __ __ . __ __ . __ __ . __ __ . __ __ .
 72
65
 73
6
 40
44.4500000000000028
 49
12.6999999999999993
 74
0
 49
-6.3499999999999996
 74
0
 49
12.6999999999999993
 74
0
 49
-6.3499999999999996
 74
0
 49
0.0
 74
0
 49
-6.3499999999999996
 74
0
  0
LTYPE
  5
41
100
AcDbSymbolTableRecord
100
AcDbLinetypeTableRecord
  2
BORDER2
 70
0
  3
Border (.5x) __.__.__.__.__.__.__.__.__.__.__.
 72
65
 73
6
 40
22.2250000000000014
 49
6.3499999999999996
 74
0
 49
-3.1749999999999998
 74
0
 49
6.3499999999999996
 74
0
 49
-3.1749999999999998
 74
0
 49
0.0
 74
0
 49
-3.1749999999999998
 74
0
  0
LTYPE
  5
42
100
AcDbSymbolTableRecord
100
AcDbLinetypeTableRecord
  2
BORDERX2
 70
0
  3
Border (2x) ____  ____  .  ____  ____  .  ___
 72
65
 73
6
 40
88.9000000000000057
 49
25.3999999999999986
 74
0
 49
-12.6999999999999993
 74
0
 49
25.3999999999999986
 74
0
 49
-12.6999999999999993
 74
0
 49
0.0
 74
0
 49
-12.6999999999999993
 74
0
  0
ENDTAB
  0
TABLE
  2
LAYER
  5
2
100
AcDbSymbolTable
 70
4
  0
LAYER
  5
10
100
AcDbSymbolTableRecord
100
AcDbLayerTableRecord
  2
0
 70
0
 62
7
420
16777215
  6
CONTINUOUS
370
0
390
F
  0
LAYER
  5
43
100
AcDbSymbolTableRecord
100
AcDbLayerTableRecord
  2
1
 70
0
 62
7
420
0
  6
CONTINUOUS
370
0
390
F
  0
LAYER
  5
44
100
AcDbSymbolTableRecord
100
AcDbLayerTableRecord
  2
2
 70
0
 62
7
420
0
  6
CONTINUOUS
370
0
390
F
  0
LAYER
  5
45
100
AcDbSymbolTableRecord
100
AcDbLayerTableRecord
  2
3
 70
0
 62
7
420
0
  6
CONTINUOUS
370
0
390
F
  0
ENDTAB
  0
TABLE
  2
STYLE
  5
3
100
AcDbSymbolTable
 70
1
  0
STYLE
  5
11
100
AcDbSymbolTableRecord
100
AcDbTextStyleTableRecord
  2
Standard
 70
0
 40
0.0
 41
0.75
 50
0.0
 71
0
 42
2.5
  3
txt
  4

  0
ENDTAB
  0
TABLE
  2
VIEW
  5
6
100
AcDbSymbolTable
 70
0
  0
ENDTAB
  0
TABLE
  2
UCS
  5
7
100
AcDbSymbolTable
 70
0
  0
ENDTAB
  0
TABLE
  2
APPID
  5
9
100
AcDbSymbolTable
 70
1
  0
APPID
  5
12
100
AcDbSymbolTableRecord
100
AcDbRegAppTableRecord
  2
ACAD
 70
0
  0
ENDTAB
  0
TABLE
  2
DIMSTYLE
  5
A
100
AcDbSymbolTable
 70
1
100
AcDbDimStyleTable
 71
0
  0
DIMSTYLE
105
27
100
AcDbSymbolTableRecord
100
AcDbDimStyleTableRecord
  2
Standard
 41
2500.0
 42
625.0
 43
3.75
 44
1250.0
 70
0
 73
0
 74
0
 77
1
 78
8
140
2500.0
141
2.5
143
0.03937007874016
147
625.0
171
3
172
1
271
2
272
2
274
3
278
44
283
0
284
8
340
11
  0
ENDTAB
  0
TABLE
  2
BLOCK_RECORD
  5
1
100
AcDbSymbolTable
 70
1
  0
BLOCK_RECORD
  5
1F
100
AcDbSymbolTableRecord
100
AcDbBlockTableRecord
  2
*Model_Space
340
22
  0
BLOCK_RECORD
  5
1B
100
AcDbSymbolTableRecord
100
AcDbBlockTableRecord
  2
*Paper_Space
340
1E
  0
BLOCK_RECORD
  5
23
100
AcDbSymbolTableRecord
100
AcDbBlockTableRecord
  2
*Paper_Space0
340
26
  0
ENDTAB
  0
ENDSEC
  0
SECTION
  2
BLOCKS
  0
BLOCK
  5
20
100
AcDbEntity
  8
0
100
AcDbBlockBegin
  2
*Model_Space
 70
0
 10
0.0
 20
0.0
 30
0.0
  3
*Model_Space
  1

  0
ENDBLK
  5
21
100
AcDbEntity
  8
0
100
AcDbBlockEnd
  0
BLOCK
  5
1C
100
AcDbEntity
 67
1
  8
0
100
AcDbBlockBegin
  2
*Paper_Space
 70
0
 10
0.0
 20
0.0
 30
0.0
  3
*Paper_Space
  1

  0
ENDBLK
  5
1D
100
AcDbEntity
 67
1
  8
0
100
AcDbBlockEnd
  0
BLOCK
  5
24
100
AcDbEntity
  8
0
100
AcDbBlockBegin
  2
*Paper_Space0
 70
0
 10
0.0
 20
0.0
 30
0.0
  3
*Paper_Space0
  1

  0
ENDBLK
  5
25
100
AcDbEntity
  8
0
100
AcDbBlockEnd
  0
ENDSEC
  0
SECTION
  2
ENTITIES
  0
LWPOLYLINE
  5
46
  8
0
 62
5
420
255
370
0
  6
CONTINUOUS
100
AcDbEntity
100
AcDbPolyline
 90
12
 70
1
 10
154.9000000000000909
 20
166.0
 10
154.9000000000000909
 20
164.5999999999999091
 10
155.2999999999999545
 20
164.5999999999999091
 10
157.0999999999999091
 20
162.7999999999999545
 10
157.0999999999999091
 20
156.6999999999998181
 10
155.7999999999999545
 20
155.3999999999998636
 10
154.8999999999998636
 20
155.4000000000000909
 10
154.8999999999998636
 20
153.9999999999997726
 10
156.2999999999999545
 20
154.0
 10
158.5
 20
156.2000000000000455
 10
158.5
 20
163.3999999999998636
 10
155.8999999999998636
 20
166.0
  0
LWPOLYLINE
  5
47
  8
0
 62
5
420
255
370
0
  6
CONTINUOUS
100
AcDbEntity
100
AcDbPolyline
 90
12
 70
1
 10
155.0999999999999091
 20
166.0
 10
155.0999999999999091
 20
164.5999999999999091
 10
154.7000000000000455
 20
164.5999999999999091
 10
152.9000000000000909
 20
162.7999999999999545
 10
152.9000000000000909
 20
156.6999999999998181
 10
154.2000000000000455
 20
155.3999999999998636
 10
155.1000000000001364
 20
155.4000000000000909
 10
155.1000000000001364
 20
153.9999999999997726
 10
153.7000000000000455
 20
154.0
 10
151.5
 20
156.2000000000000455
 10
151.5
 20
163.3999999999998636
 10
154.1000000000001364
 20
166.0
  0
LWPOLYLINE
  5
48
  8
0
 62
5
420
255
370
0
  6
CONTINUOUS
100
AcDbEntity
100
AcDbPolyline
 90
12
 70
1
 10
314.9000000000000909
 20
166.0
 10
314.9000000000000909
 20
164.5999999999999091
 10
315.2999999999999545
 20
164.5999999999999091
 10
317.0999999999999091
 20
162.7999999999999545
 10
317.0999999999999091
 20
156.6999999999998181
 10
315.7999999999999545
 20
155.3999999999998636
 10
314.8999999999998636
 20
155.4000000000000909
 10
314.8999999999998636
 20
153.9999999999997726
 10
316.2999999999999545
 20
154.0
 10
318.5
 20
156.2000000000000455
 10
318.5
 20
163.3999999999998636
 10
315.8999999999998636
 20
166.0
  0
LWPOLYLINE
  5
49
  8
0
 62
5
420
255
370
0
  6
CONTINUOUS
100
AcDbEntity
100
AcDbPolyline
 90
12
 70
1
 10
315.0999999999999091
 20
166.0
 10
315.0999999999999091
 20
164.5999999999999091
 10
314.7000000000000455
 20
164.5999999999999091
 10
312.9000000000000909
 20
162.7999999999999545
 10
312.9000000000000909
 20
156.6999999999998181
 10
314.2000000000000455
 20
155.3999999999998636
 10
315.1000000000001364
 20
155.4000000000000909
 10
315.1000000000001364
 20
153.9999999999997726
 10
313.7000000000000455
 20
154.0
 10
311.5
 20
156.2000000000000455
 10
311.5
 20
163.3999999999998636
 10
314.1000000000001364
 20
166.0
  0
LWPOLYLINE
  5
4A
  8
0
 62
5
420
255
370
0
  6
CONTINUOUS
100
AcDbEntity
100
AcDbPolyline
 90
12
 70
1
 10
474.9000000000000909
 20
166.0
 10
474.9000000000000909
 20
164.5999999999999091
 10
475.2999999999999545
 20
164.5999999999999091
 10
477.0999999999999091
 20
162.7999999999999545
 10
477.0999999999999091
 20
156.6999999999998181
 10
475.7999999999999545
 20
155.3999999999998636
 10
474.8999999999998636
 20
155.4000000000000909
 10
474.8999999999998636
 20
153.9999999999997726
 10
476.2999999999999545
 20
154.0
 10
478.5
 20
156.2000000000000455
 10
478.5
 20
163.3999999999998636
 10
475.8999999999998636
 20
166.0
  0
LWPOLYLINE
  5
4B
  8
0
 62
5
420
255
370
0
  6
CONTINUOUS
100
AcDbEntity
100
AcDbPolyline
 90
12
 70
1
 10
475.0999999999999091
 20
166.0
 10
475.0999999999999091
 20
164.5999999999999091
 10
474.7000000000000455
 20
164.5999999999999091
 10
472.9000000000000909
 20
162.7999999999999545
 10
472.9000000000000909
 20
156.6999999999998181
 10
474.2000000000000455
 20
155.3999999999998636
 10
475.1000000000001364
 20
155.4000000000000909
 10
475.1000000000001364
 20
153.9999999999997726
 10
473.7000000000000455
 20
154.0
 10
471.5
 20
156.2000000000000455
 10
471.5
 20
163.3999999999998636
 10
474.1000000000001364
 20
166.0
  0
LWPOLYLINE
  5
4C
  8
0
 62
5
420
255
370
0
  6
CONTINUOUS
100
AcDbEntity
100
AcDbPolyline
 90
12
 70
1
 10
164.9000000000000909
 20
166.0
 10
164.9000000000000909
 20
164.5999999999999091
 10
165.2999999999999545
 20
164.5999999999999091
 10
167.0999999999999091
 20
162.7999999999999545
 10
167.0999999999999091
 20
156.6999999999998181
 10
165.7999999999999545
 20
155.3999999999998636
 10
164.8999999999998636
 20
155.4000000000000909
 10
164.8999999999998636
 20
153.9999999999997726
 10
166.2999999999999545
 20
154.0
 10
168.5
 20
156.2000000000000455
 10
168.5
 20
163.3999999999998636
 10
165.8999999999998636
 20
166.0
  0
LWPOLYLINE
  5
4D
  8
0
 62
5
420
255
370
0
  6
CONTINUOUS
100
AcDbEntity
100
AcDbPolyline
 90
12
 70
1
 10
165.0999999999999091
 20
166.0
 10
165.0999999999999091
 20
164.5999999999999091
 10
164.7000000000000455
 20
164.5999999999999091
 10
162.9000000000000909
 20
162.7999999999999545
 10
162.9000000000000909
 20
156.6999999999998181
 10
164.2000000000000455
 20
155.3999999999998636
 10
165.1000000000001364
 20
155.4000000000000909
 10
165.1000000000001364
 20
153.9999999999997726
 10
163.7000000000000455
 20
154.0
 10
161.5
 20
156.2000000000000455
 10
161.5
 20
163.3999999999998636
 10
164.1000000000001364
 20
166.0
  0
LWPOLYLINE
  5
4E
  8
0
 62
5
420
255
370
-1
  6
ByLayer
100
AcDbEntity
100
AcDbPolyline
 90
11
 70
1
 10
327.2000000000000455
 20
153.9999999999997726
 10
327.2000000000000455
 20
155.3999999999998636
 10
325.6999999999998181
 20
155.4000000000000909
 10
325.6999999999998181
 20
165.9999999999997726
 10
324.7000000000000455
 20
165.9999999999997726
 10
323.2000000000000455
 20
164.5
 10
323.2000000000000455
 20
163.7000000000000455
 10
324.3000000000001819
 20
163.7000000000000455
 10
324.2999999999999545
 20
155.3999999999998636
 10
322.7999999999999545
 20
155.3999999999998636
 10
322.7999999999999545
 20
153.9999999999997726
  0
LWPOLYLINE
  5
4F
  8
0
 62
5
420
255
370
0
  6
CONTINUOUS
100
AcDbEntity
100
AcDbPolyline
 90
16
 70
1
 10
488.5
 20
153.9999999999997726
 10
481.5
 20
153.9999999999997726
 10
481.5
 20
155.5999999999999091
 10
487.0999999999999091
 20
162.2999999999999545
 10
487.0999999999999091
 20
163.2000000000000455
 10
485.7000000000000455
 20
164.5999999999999091
 10
484.2999999999999545
 20
164.5999999999999091
 10
482.8999999999998636
 20
163.1999999999998181
 10
481.5
 20
163.1999999999998181
 10
481.5
 20
163.7999999999999545
 10
483.7000000000000455
 20
166.0
 10
486.2999999999999545
 20
166.0
 10
488.5
 20
163.7999999999999545
 10
488.5
 20
161.5999999999999091
 10
483.5
 20
155.3999999999998636
 10
488.5
 20
155.3999999999998636
  0
LWPOLYLINE
  5
50
  8
0
 62
5
420
255
370
0
  6
CONTINUOUS
100
AcDbEntity
100
AcDbPolyline
 90
12
 70
1
 10
164.9000000000000909
 20
326.0
 10
164.9000000000000909
 20
324.5999999999999091
 10
165.2999999999999545
 20
324.5999999999999091
 10
167.0999999999999091
 20
322.7999999999999545
 10
167.0999999999999091
 20
316.6999999999998181
 10
165.7999999999999545
 20
315.3999999999998636
 10
164.8999999999998636
 20
315.4000000000000909
 10
164.8999999999998636
 20
313.9999999999997726
 10
166.2999999999999545
 20
314.0
 10
168.5
 20
316.2000000000000455
 10
168.5
 20
323.3999999999998636
 10
165.8999999999998636
 20
326.0
  0
LWPOLYLINE
  5
51
  8
0
 62
5
420
255
370
0
  6
CONTINUOUS
100
AcDbEntity
100
AcDbPolyline
 90
12
 70
1
 10
165.0999999999999091
 20
326.0
 10
165.0999999999999091
 20
324.5999999999999091
 10
164.7000000000000455
 20
324.5999999999999091
 10
162.9000000000000909
 20
322.7999999999999545
 10
162.9000000000000909
 20
316.6999999999998181
 10
164.2000000000000455
 20
315.3999999999998636
 10
165.1000000000001364
 20
315.4000000000000909
 10
165.1000000000001364
 20
313.9999999999997726
 10
163.7000000000000455
 20
314.0
 10
161.5
 20
316.2000000000000455
 10
161.5
 20
323.3999999999998636
 10
164.1000000000001364
 20
326.0
  0
LWPOLYLINE
  5
52
  8
0
 62
5
420
255
370
-1
  6
ByLayer
100
AcDbEntity
100
AcDbPolyline
 90
11
 70
1
 10
327.2000000000000455
 20
313.9999999999997726
 10
327.2000000000000455
 20
315.3999999999998636
 10
325.6999999999998181
 20
315.4000000000000909
 10
325.6999999999998181
 20
325.9999999999997726
 10
324.7000000000000455
 20
325.9999999999997726
 10
323.2000000000000455
 20
324.5
 10
323.2000000000000455
 20
323.7000000000000455
 10
324.3000000000001819
 20
323.7000000000000455
 10
324.2999999999999545
 20
315.3999999999998636
 10
322.7999999999999545
 20
315.3999999999998636
 10
322.7999999999999545
 20
313.9999999999997726
  0
LWPOLYLINE
  5
53
  8
0
 62
5
420
255
370
0
  6
CONTINUOUS
100
AcDbEntity
100
AcDbPolyline
 90
16
 70
1
 10
488.5
 20
313.9999999999997726
 10
481.5
 20
313.9999999999997726
 10
481.5
 20
315.5999999999999091
 10
487.0999999999999091
 20
322.2999999999999545
 10
487.0999999999999091
 20
323.2000000000000455
 10
485.7000000000000455
 20
324.5999999999999091
 10
484.2999999999999545
 20
324.5999999999999091
 10
482.8999999999998636
 20
323.1999999999998181
 10
481.5
 20
323.1999999999998181
 10
481.5
 20
323.7999999999999545
 10
483.7000000000000455
 20
326.0
 10
486.2999999999999545
 20
326.0
 10
488.5
 20
323.7999999999999545
 10
488.5
 20
321.5999999999999091
 10
483.5
 20
315.3999999999998636
 10
488.5
 20
315.3999999999998636
  0
LWPOLYLINE
  5
54
  8
0
 62
5
420
255
370
0
  6
CONTINUOUS
100
AcDbEntity
100
AcDbPolyline
 90
12
 70
1
 10
164.9000000000000909
 20
486.0
 10
164.9000000000000909
 20
484.5999999999999091
 10
165.2999999999999545
 20
484.5999999999999091
 10
167.0999999999999091
 20
482.7999999999999545
 10
167.0999999999999091
 20
476.6999999999998181
 10
165.7999999999999545
 20
475.3999999999998636
 10
164.8999999999998636
 20
475.4000000000000909
 10
164.8999999999998636
 20
473.9999999999997726
 10
166.2999999999999545
 20
474.0
 10
168.5
 20
476.2000000000000455
 10
168.5
 20
483.3999999999998636
 10
165.8999999999998636
 20
486.0
  0
LWPOLYLINE
  5
55
  8
0
 62
5
420
255
370
0
  6
CONTINUOUS
100
AcDbEntity
100
AcDbPolyline
 90
12
 70
1
 10
165.0999999999999091
 20
486.0
 10
165.0999999999999091
 20
484.5999999999999091
 10
164.7000000000000455
 20
484.5999999999999091
 10
162.9000000000000909
 20
482.7999999999999545
 10
162.9000000000000909
 20
476.6999999999998181
 10
164.2000000000000455
 20
475.3999999999998636
 10
165.1000000000001364
 20
475.4000000000000909
 10
165.1000000000001364
 20
473.9999999999997726
 10
163.7000000000000455
 20
474.0
 10
161.5
 20
476.2000000000000455
 10
161.5
 20
483.3999999999998636
 10
164.1000000000001364
 20
486.0
  0
LWPOLYLINE
  5
56
  8
0
 62
5
420
255
370
-1
  6
ByLayer
100
AcDbEntity
100
AcDbPolyline
 90
11
 70
1
 10
327.2000000000000455
 20
473.9999999999997726
 10
327.2000000000000455
 20
475.3999999999998636
 10
325.6999999999998181
 20
475.4000000000000909
 10
325.6999999999998181
 20
485.9999999999997726
 10
324.7000000000000455
 20
485.9999999999997726
 10
323.2000000000000455
 20
484.5
 10
323.2000000000000455
 20
483.7000000000000455
 10
324.3000000000001819
 20
483.7000000000000455
 10
324.2999999999999545
 20
475.3999999999998636
 10
322.7999999999999545
 20
475.3999999999998636
 10
322.7999999999999545
 20
473.9999999999997726
  0
LWPOLYLINE
  5
57
  8
0
 62
5
420
255
370
0
  6
CONTINUOUS
100
AcDbEntity
100
AcDbPolyline
 90
16
 70
1
 10
488.5
 20
473.9999999999997726
 10
481.5
 20
473.9999999999997726
 10
481.5
 20
475.5999999999999091
 10
487.0999999999999091
 20
482.2999999999999545
 10
487.0999999999999091
 20
483.2000000000000455
 10
485.7000000000000455
 20
484.5999999999999091
 10
484.2999999999999545
 20
484.5999999999999091
 10
482.8999999999998636
 20
483.1999999999998181
 10
481.5
 20
483.1999999999998181
 10
481.5
 20
483.7999999999999545
 10
483.7000000000000455
 20
486.0
 10
486.2999999999999545
 20
486.0
 10
488.5
 20
483.7999999999999545
 10
488.5
 20
481.5999999999999091
 10
483.5
 20
475.3999999999998636
 10
488.5
 20
475.3999999999998636
  0
LWPOLYLINE
  5
58
  8
0
 62
5
420
255
370
-1
  6
ByLayer
100
AcDbEntity
100
AcDbPolyline
 90
11
 70
1
 10
157.2000000000000455
 20
313.9999999999997726
 10
157.2000000000000455
 20
315.3999999999998636
 10
155.6999999999998181
 20
315.4000000000000909
 10
155.6999999999998181
 20
325.9999999999997726
 10
154.7000000000000455
 20
325.9999999999997726
 10
153.2000000000000455
 20
324.5
 10
153.2000000000000455
 20
323.7000000000000455
 10
154.3000000000001819
 20
323.7000000000000455
 10
154.2999999999999545
 20
315.3999999999998636
 10
152.7999999999999545
 20
315.3999999999998636
 10
152.7999999999999545
 20
313.9999999999997726
  0
LWPOLYLINE
  5
59
  8
0
 62
5
420
255
370
0
  6
CONTINUOUS
100
AcDbEntity
100
AcDbPolyline
 90
16
 70
1
 10
158.5
 20
473.9999999999997726
 10
151.5
 20
473.9999999999997726
 10
151.5
 20
475.5999999999999091
 10
157.0999999999999091
 20
482.2999999999999545
 10
157.0999999999999091
 20
483.2000000000000455
 10
155.7000000000000455
 20
484.5999999999999091
 10
154.2999999999999545
 20
484.5999999999999091
 10
152.8999999999998636
 20
483.1999999999998181
 10
151.5
 20
483.1999999999998181
 10
151.5
 20
483.7999999999999545
 10
153.7000000000000455
 20
486.0
 10
156.2999999999999545
 20
486.0
 10
158.5
 20
483.7999999999999545
 10
158.5
 20
481.5999999999999091
 10
153.5
 20
475.3999999999998636
 10
158.5
 20
475.3999999999998636
  0
LWPOLYLINE
  5
5A
  8
0
 62
5
420
255
370
-1
  6
ByLayer
100
AcDbEntity
100
AcDbPolyline
 90
11
 70
1
 10
317.2000000000000455
 20
313.9999999999997726
 10
317.2000000000000455
 20
315.3999999999998636
 10
315.6999999999998181
 20
315.4000000000000909
 10
315.6999999999998181
 20
325.9999999999997726
 10
314.7000000000000455
 20
325.9999999999997726
 10
313.2000000000000455
 20
324.5
 10
313.2000000000000455
 20
323.7000000000000455
 10
314.3000000000001819
 20
323.7000000000000455
 10
314.2999999999999545
 20
315.3999999999998636
 10
312.7999999999999545
 20
315.3999999999998636
 10
312.7999999999999545
 20
313.9999999999997726
  0
LWPOLYLINE
  5
5B
  8
0
 62
5
420
255
370
0
  6
CONTINUOUS
100
AcDbEntity
100
AcDbPolyline
 90
16
 70
1
 10
318.5
 20
473.9999999999997726
 10
311.5
 20
473.9999999999997726
 10
311.5
 20
475.5999999999999091
 10
317.0999999999999091
 20
482.2999999999999545
 10
317.0999999999999091
 20
483.2000000000000455
 10
315.7000000000000455
 20
484.5999999999999091
 10
314.2999999999999545
 20
484.5999999999999091
 10
312.8999999999998636
 20
483.1999999999998181
 10
311.5
 20
483.1999999999998181
 10
311.5
 20
483.7999999999999545
 10
313.7000000000000455
 20
486.0
 10
316.2999999999999545
 20
486.0
 10
318.5
 20
483.7999999999999545
 10
318.5
 20
481.5999999999999091
 10
313.5
 20
475.3999999999998636
 10
318.5
 20
475.3999999999998636
  0
LWPOLYLINE
  5
5C
  8
0
 62
5
420
255
370
-1
  6
ByLayer
100
AcDbEntity
100
AcDbPolyline
 90
11
 70
1
 10
477.2000000000000455
 20
313.9999999999997726
 10
477.2000000000000455
 20
315.3999999999998636
 10
475.6999999999998181
 20
315.4000000000000909
 10
475.6999999999998181
 20
325.9999999999997726
 10
474.7000000000000455
 20
325.9999999999997726
 10
473.2000000000000455
 20
324.5
 10
473.2000000000000455
 20
323.7000000000000455
 10
474.3000000000001819
 20
323.7000000000000455
 10
474.2999999999999545
 20
315.3999999999998636
 10
472.7999999999999545
 20
315.3999999999998636
 10
472.7999999999999545
 20
313.9999999999997726
  0
LWPOLYLINE
  5
5D
  8
0
 62
5
420
255
370
0
  6
CONTINUOUS
100
AcDbEntity
100
AcDbPolyline
 90
16
 70
1
 10
478.5
 20
473.9999999999997726
 10
471.5
 20
473.9999999999997726
 10
471.5
 20
475.5999999999999091
 10
477.0999999999999091
 20
482.2999999999999545
 10
477.0999999999999091
 20
483.2000000000000455
 10
475.7000000000000455
 20
484.5999999999999091
 10
474.2999999999999545
 20
484.5999999999999091
 10
472.8999999999998636
 20
483.1999999999998181
 10
471.5
 20
483.1999999999998181
 10
471.5
 20
483.7999999999999545
 10
473.7000000000000455
 20
486.0
 10
476.2999999999999545
 20
486.0
 10
478.5
 20
483.7999999999999545
 10
478.5
 20
481.5999999999999091
 10
473.5
 20
475.3999999999998636
 10
478.5
 20
475.3999999999998636
  0
LWPOLYLINE
  5
5E
  8
0
 62
5
420
255
370
-1
  6
ByLayer
100
AcDbEntity
100
AcDbPolyline
 90
12
 70
1
 10
-7.0
 20
40.0
 10
7.0
 20
40.0
 10
7.0
 20
7.0
 10
40.0
 20
7.0
 10
40.0
 20
-7.0
 10
7.0
 20
-7.0
 10
7.0
 20
-40.0
 10
-7.0
 20
-40.0
 10
-7.0
 20
-7.0
 10
-40.0
 20
-7.0
 10
-40.0
 20
7.0
 10
-7.0
 20
7.0
  0
LWPOLYLINE
  5
5F
  8
0
 62
5
420
255
370
0
  6
CONTINUOUS
100
AcDbEntity
100
AcDbPolyline
 90
12
 70
1
 10
79.0
 20
84.0
 10
79.0
 20
81.0
 10
76.0
 20
81.0
 10
76.0
 20
79.0
 10
79.0
 20
79.0
 10
79.0
 20
76.0
 10
81.0
 20
76.0
 10
81.0
 20
79.0
 10
84.0
 20
79.0
 10
84.0
 20
81.0
 10
81.0
 20
81.0
 10
81.0
 20
84.0
  0
LWPOLYLINE
  5
60
  8
0
 62
5
420
255
370
0
  6
CONTINUOUS
100
AcDbEntity
100
AcDbPolyline
 90
12
 70
1
 10
159.0
 20
84.0
 10
159.0
 20
81.0
 10
156.0
 20
81.0
 10
156.0
 20
79.0
 10
159.0
 20
79.0
 10
159.0
 20
76.0
 10
161.0
 20
76.0
 10
161.0
 20
79.0
 10
164.0
 20
79.0
 10
164.0
 20
81.0
 10
161.0
 20
81.0
 10
161.0
 20
84.0
  0
LWPOLYLINE
  5
61
  8
0
 62
5
420
255
370
0
  6
CONTINUOUS
100
AcDbEntity
100
AcDbPolyline
 90
12
 70
1
 10
239.0
 20
84.0
 10
239.0
 20
81.0
 10
236.0
 20
81.0
 10
236.0
 20
79.0
 10
239.0
 20
79.0
 10
239.0
 20
76.0
 10
241.0
 20
76.0
 10
241.0
 20
79.0
 10
244.0
 20
79.0
 10
244.0
 20
81.0
 10
241.0
 20
81.0
 10
241.0
 20
84.0
  0
LWPOLYLINE
  5
62
  8
0
 62
5
420
255
370
0
  6
CONTINUOUS
100
AcDbEntity
100
AcDbPolyline
 90
12
 70
1
 10
319.0
 20
84.0
 10
319.0
 20
81.0
 10
316.0
 20
81.0
 10
316.0
 20
79.0
 10
319.0
 20
79.0
 10
319.0
 20
76.0
 10
321.0
 20
76.0
 10
321.0
 20
79.0
 10
324.0
 20
79.0
 10
324.0
 20
81.0
 10
321.0
 20
81.0
 10
321.0
 20
84.0
  0
LWPOLYLINE
  5
63
  8
0
 62
5
420
255
370
0
  6
CONTINUOUS
100
AcDbEntity
100
AcDbPolyline
 90
12
 70
1
 10
399.0
 20
84.0
 10
399.0
 20
81.0
 10
396.0
 20
81.0
 10
396.0
 20
79.0
 10
399.0
 20
79.0
 10
399.0
 20
76.0
 10
401.0
 20
76.0
 10
401.0
 20
79.0
 10
404.0
 20
79.0
 10
404.0
 20
81.0
 10
401.0
 20
81.0
 10
401.0
 20
84.0
  0
LWPOLYLINE
  5
64
  8
0
 62
5
420
255
370
0
  6
CONTINUOUS
100
AcDbEntity
100
AcDbPolyline
 90
12
 70
1
 10
479.0
 20
84.0
 10
479.0
 20
81.0
 10
476.0
 20
81.0
 10
476.0
 20
79.0
 10
479.0
 20
79.0
 10
479.0
 20
76.0
 10
481.0
 20
76.0
 10
481.0
 20
79.0
 10
484.0
 20
79.0
 10
484.0
 20
81.0
 10
481.0
 20
81.0
 10
481.0
 20
84.0
  0
LWPOLYLINE
  5
65
  8
0
 62
5
420
255
370
0
  6
CONTINUOUS
100
AcDbEntity
100
AcDbPolyline
 90
12
 70
1
 10
79.0
 20
164.0
 10
79.0
 20
161.0
 10
76.0
 20
161.0
 10
76.0
 20
159.0
 10
79.0
 20
159.0
 10
79.0
 20
156.0
 10
81.0
 20
156.0
 10
81.0
 20
159.0
 10
84.0
 20
159.0
 10
84.0
 20
161.0
 10
81.0
 20
161.0
 10
81.0
 20
164.0
  0
LWPOLYLINE
  5
66
  8
0
 62
5
420
255
370
0
  6
CONTINUOUS
100
AcDbEntity
100
AcDbPolyline
 90
12
 70
1
 10
239.0
 20
164.0
 10
239.0
 20
161.0
 10
236.0
 20
161.0
 10
236.0
 20
159.0
 10
239.0
 20
159.0
 10
239.0
 20
156.0
 10
241.0
 20
156.0
 10
241.0
 20
159.0
 10
244.0
 20
159.0
 10
244.0
 20
161.0
 10
241.0
 20
161.0
 10
241.0
 20
164.0
  0
LWPOLYLINE
  5
67
  8
0
 62
5
420
255
370
0
  6
CONTINUOUS
100
AcDbEntity
100
AcDbPolyline
 90
12
 70
1
 10
399.0
 20
164.0
 10
399.0
 20
161.0
 10
396.0
 20
161.0
 10
396.0
 20
159.0
 10
399.0
 20
159.0
 10
399.0
 20
156.0
 10
401.0
 20
156.0
 10
401.0
 20
159.0
 10
404.0
 20
159.0
 10
404.0
 20
161.0
 10
401.0
 20
161.0
 10
401.0
 20
164.0
  0
LWPOLYLINE
  5
68
  8
0
 62
5
420
255
370
0
  6
CONTINUOUS
100
AcDbEntity
100
AcDbPolyline
 90
12
 70
1
 10
79.0
 20
244.0
 10
79.0
 20
241.0
 10
76.0
 20
241.0
 10
76.0
 20
239.0
 10
79.0
 20
239.0
 10
79.0
 20
236.0
 10
81.0
 20
236.0
 10
81.0
 20
239.0
 10
84.0
 20
239.0
 10
84.0
 20
241.0
 10
81.0
 20
241.0
 10
81.0
 20
244.0
  0
LWPOLYLINE
  5
69
  8
0
 62
5
420
255
370
0
  6
CONTINUOUS
100
AcDbEntity
100
AcDbPolyline
 90
12
 70
1
 10
159.0
 20
244.0
 10
159.0
 20
241.0
 10
156.0
 20
241.0
 10
156.0
 20
239.0
 10
159.0
 20
239.0
 10
159.0
 20
236.0
 10
161.0
 20
236.0
 10
161.0
 20
239.0
 10
164.0
 20
239.0
 10
164.0
 20
241.0
 10
161.0
 20
241.0
 10
161.0
 20
244.0
  0
LWPOLYLINE
  5
6A
  8
0
 62
5
420
255
370
0
  6
CONTINUOUS
100
AcDbEntity
100
AcDbPolyline
 90
12
 70
1
 10
239.0
 20
244.0
 10
239.0
 20
241.0
 10
236.0
 20
241.0
 10
236.0
 20
239.0
 10
239.0
 20
239.0
 10
239.0
 20
236.0
 10
241.0
 20
236.0
 10
241.0
 20
239.0
 10
244.0
 20
239.0
 10
244.0
 20
241.0
 10
241.0
 20
241.0
 10
241.0
 20
244.0
  0
LWPOLYLINE
  5
6B
  8
0
 62
5
420
255
370
0
  6
CONTINUOUS
100
AcDbEntity
100
AcDbPolyline
 90
12
 70
1
 10
319.0
 20
244.0
 10
319.0
 20
241.0
 10
316.0
 20
241.0
 10
316.0
 20
239.0
 10
319.0
 20
239.0
 10
319.0
 20
236.0
 10
321.0
 20
236.0
 10
321.0
 20
239.0
 10
324.0
 20
239.0
 10
324.0
 20
241.0
 10
321.0
 20
241.0
 10
321.0
 20
244.0
  0
LWPOLYLINE
  5
6C
  8
0
 62
5
420
255
370
0
  6
CONTINUOUS
100
AcDbEntity
100
AcDbPolyline
 90
12
 70
1
 10
399.0
 20
244.0
 10
399.0
 20
241.0
 10
396.0
 20
241.0
 10
396.0
 20
239.0
 10
399.0
 20
239.0
 10
399.0
 20
236.0
 10
401.0
 20
236.0
 10
401.0
 20
239.0
 10
404.0
 20
239.0
 10
404.0
 20
241.0
 10
401.0
 20
241.0
 10
401.0
 20
244.0
  0
LWPOLYLINE
  5
6D
  8
0
 62
5
420
255
370
0
  6
CONTINUOUS
100
AcDbEntity
100
AcDbPolyline
 90
12
 70
1
 10
479.0
 20
244.0
 10
479.0
 20
241.0
 10
476.0
 20
241.0
 10
476.0
 20
239.0
 10
479.0
 20
239.0
 10
479.0
 20
236.0
 10
481.0
 20
236.0
 10
481.0
 20
239.0
 10
484.0
 20
239.0
 10
484.0
 20
241.0
 10
481.0
 20
241.0
 10
481.0
 20
244.0
  0
LWPOLYLINE
  5
6E
  8
0
 62
5
420
255
370
0
  6
CONTINUOUS
100
AcDbEntity
100
AcDbPolyline
 90
12
 70
1
 10
79.0
 20
324.0
 10
79.0
 20
321.0
 10
76.0
 20
321.0
 10
76.0
 20
319.0
 10
79.0
 20
319.0
 10
79.0
 20
316.0
 10
81.0
 20
316.0
 10
81.0
 20
319.0
 10
84.0
 20
319.0
 10
84.0
 20
321.0
 10
81.0
 20
321.0
 10
81.0
 20
324.0
  0
LWPOLYLINE
  5
6F
  8
0
 62
5
420
255
370
0
  6
CONTINUOUS
100
AcDbEntity
100
AcDbPolyline
 90
12
 70
1
 10
239.0
 20
324.0
 10
239.0
 20
321.0
 10
236.0
 20
321.0
 10
236.0
 20
319.0
 10
239.0
 20
319.0
 10
239.0
 20
316.0
 10
241.0
 20
316.0
 10
241.0
 20
319.0
 10
244.0
 20
319.0
 10
244.0
 20
321.0
 10
241.0
 20
321.0
 10
241.0
 20
324.0
  0
LWPOLYLINE
  5
70
  8
0
 62
5
420
255
370
0
  6
CONTINUOUS
100
AcDbEntity
100
AcDbPolyline
 90
12
 70
1
 10
399.0
 20
324.0
 10
399.0
 20
321.0
 10
396.0
 20
321.0
 10
396.0
 20
319.0
 10
399.0
 20
319.0
 10
399.0
 20
316.0
 10
401.0
 20
316.0
 10
401.0
 20
319.0
 10
404.0
 20
319.0
 10
404.0
 20
321.0
 10
401.0
 20
321.0
 10
401.0
 20
324.0
  0
LWPOLYLINE
  5
71
  8
0
 62
5
420
255
370
0
  6
CONTINUOUS
100
AcDbEntity
100
AcDbPolyline
 90
12
 70
1
 10
79.0
 20
404.0
 10
79.0
 20
401.0
 10
76.0
 20
401.0
 10
76.0
 20
399.0
 10
79.0
 20
399.0
 10
79.0
 20
396.0
 10
81.0
 20
396.0
 10
81.0
 20
399.0
 10
84.0
 20
399.0
 10
84.0
 20
401.0
 10
81.0
 20
401.0
 10
81.0
 20
404.0
  0
LWPOLYLINE
  5
72
  8
0
 62
5
420
255
370
0
  6
CONTINUOUS
100
AcDbEntity
100
AcDbPolyline
 90
12
 70
1
 10
159.0
 20
404.0
 10
159.0
 20
401.0
 10
156.0
 20
401.0
 10
156.0
 20
399.0
 10
159.0
 20
399.0
 10
159.0
 20
396.0
 10
161.0
 20
396.0
 10
161.0
 20
399.0
 10
164.0
 20
399.0
 10
164.0
 20
401.0
 10
161.0
 20
401.0
 10
161.0
 20
404.0
  0
LWPOLYLINE
  5
73
  8
0
 62
5
420
255
370
0
  6
CONTINUOUS
100
AcDbEntity
100
AcDbPolyline
 90
12
 70
1
 10
239.0
 20
404.0
 10
239.0
 20
401.0
 10
236.0
 20
401.0
 10
236.0
 20
399.0
 10
239.0
 20
399.0
 10
239.0
 20
396.0
 10
241.0
 20
396.0
 10
241.0
 20
399.0
 10
244.0
 20
399.0
 10
244.0
 20
401.0
 10
241.0
 20
401.0
 10
241.0
 20
404.0
  0
LWPOLYLINE
  5
74
  8
0
 62
5
420
255
370
0
  6
CONTINUOUS
100
AcDbEntity
100
AcDbPolyline
 90
12
 70
1
 10
319.0
 20
404.0
 10
319.0
 20
401.0
 10
316.0
 20
401.0
 10
316.0
 20
399.0
 10
319.0
 20
399.0
 10
319.0
 20
396.0
 10
321.0
 20
396.0
 10
321.0
 20
399.0
 10
324.0
 20
399.0
 10
324.0
 20
401.0
 10
321.0
 20
401.0
 10
321.0
 20
404.0
  0
LWPOLYLINE
  5
75
  8
0
 62
5
420
255
370
0
  6
CONTINUOUS
100
AcDbEntity
100
AcDbPolyline
 90
12
 70
1
 10
399.0
 20
404.0
 10
399.0
 20
401.0
 10
396.0
 20
401.0
 10
396.0
 20
399.0
 10
399.0
 20
399.0
 10
399.0
 20
396.0
 10
401.0
 20
396.0
 10
401.0
 20
399.0
 10
404.0
 20
399.0
 10
404.0
 20
401.0
 10
401.0
 20
401.0
 10
401.0
 20
404.0
  0
LWPOLYLINE
  5
76
  8
0
 62
5
420
255
370
0
  6
CONTINUOUS
100
AcDbEntity
100
AcDbPolyline
 90
12
 70
1
 10
479.0
 20
404.0
 10
479.0
 20
401.0
 10
476.0
 20
401.0
 10
476.0
 20
399.0
 10
479.0
 20
399.0
 10
479.0
 20
396.0
 10
481.0
 20
396.0
 10
481.0
 20
399.0
 10
484.0
 20
399.0
 10
484.0
 20
401.0
 10
481.0
 20
401.0
 10
481.0
 20
404.0
  0
LWPOLYLINE
  5
77
  8
0
 62
5
420
255
370
0
  6
CONTINUOUS
100
AcDbEntity
100
AcDbPolyline
 90
12
 70
1
 10
79.0
 20
484.0
 10
79.0
 20
481.0
 10
76.0
 20
481.0
 10
76.0
 20
479.0
 10
79.0
 20
479.0
 10
79.0
 20
476.0
 10
81.0
 20
476.0
 10
81.0
 20
479.0
 10
84.0
 20
479.0
 10
84.0
 20
481.0
 10
81.0
 20
481.0
 10
81.0
 20
484.0
  0
LWPOLYLINE
  5
78
  8
0
 62
5
420
255
370
0
  6
CONTINUOUS
100
AcDbEntity
100
AcDbPolyline
 90
12
 70
1
 10
239.0
 20
484.0
 10
239.0
 20
481.0
 10
236.0
 20
481.0
 10
236.0
 20
479.0
 10
239.0
 20
479.0
 10
239.0
 20
476.0
 10
241.0
 20
476.0
 10
241.0
 20
479.0
 10
244.0
 20
479.0
 10
244.0
 20
481.0
 10
241.0
 20
481.0
 10
241.0
 20
484.0
  0
LWPOLYLINE
  5
79
  8
0
 62
5
420
255
370
0
  6
CONTINUOUS
100
AcDbEntity
100
AcDbPolyline
 90
12
 70
1
 10
399.0
 20
484.0
 10
399.0
 20
481.0
 10
396.0
 20
481.0
 10
396.0
 20
479.0
 10
399.0
 20
479.0
 10
399.0
 20
476.0
 10
401.0
 20
476.0
 10
401.0
 20
479.0
 10
404.0
 20
479.0
 10
404.0
 20
481.0
 10
401.0
 20
481.0
 10
401.0
 20
484.0
  0
LWPOLYLINE
  5
7A
  8
1
 62
5
420
255
370
0
  6
CONTINUOUS
100
AcDbEntity
100
AcDbPolyline
 90
12
 70
1
 10
634.9000000000000909
 20
166.0
 10
634.9000000000000909
 20
164.5999999999999091
 10
635.2999999999999545
 20
164.5999999999999091
 10
637.0999999999999091
 20
162.7999999999999545
 10
637.0999999999999091
 20
156.6999999999998181
 10
635.7999999999999545
 20
155.3999999999998636
 10
634.8999999999998636
 20
155.4000000000000909
 10
634.8999999999998636
 20
153.9999999999997726
 10
636.2999999999999545
 20
154.0
 10
638.5
 20
156.2000000000000455
 10
638.5
 20
163.3999999999998636
 10
635.8999999999998636
 20
166.0
  0
LWPOLYLINE
  5
7B
  8
1
 62
5
420
255
370
0
  6
CONTINUOUS
100
AcDbEntity
100
AcDbPolyline
 90
12
 70
1
 10
635.0999999999999091
 20
166.0
 10
635.0999999999999091
 20
164.5999999999999091
 10
634.7000000000000455
 20
164.5999999999999091
 10
632.9000000000000909
 20
162.7999999999999545
 10
632.9000000000000909
 20
156.6999999999998181
 10
634.2000000000000455
 20
155.3999999999998636
 10
635.1000000000001364
 20
155.4000000000000909
 10
635.1000000000001364
 20
153.9999999999997726
 10
633.7000000000000455
 20
154.0
 10
631.5
 20
156.2000000000000455
 10
631.5
 20
163.3999999999998636
 10
634.1000000000001364
 20
166.0
  0
LWPOLYLINE
  5
7C
  8
1
 62
5
420
255
370
0
  6
CONTINUOUS
100
AcDbEntity
100
AcDbPolyline
 90
12
 70
1
 10
794.9000000000000909
 20
166.0
 10
794.9000000000000909
 20
164.5999999999999091
 10
795.2999999999999545
 20
164.5999999999999091
 10
797.0999999999999091
 20
162.7999999999999545
 10
797.0999999999999091
 20
156.6999999999998181
 10
795.7999999999999545
 20
155.3999999999998636
 10
794.8999999999998636
 20
155.4000000000000909
 10
794.8999999999998636
 20
153.9999999999997726
 10
796.2999999999999545
 20
154.0
 10
798.5
 20
156.2000000000000455
 10
798.5
 20
163.3999999999998636
 10
795.8999999999998636
 20
166.0
  0
LWPOLYLINE
  5
7D
  8
1
 62
5
420
255
370
0
  6
CONTINUOUS
100
AcDbEntity
100
AcDbPolyline
 90
12
 70
1
 10
795.0999999999999091
 20
166.0
 10
795.0999999999999091
 20
164.5999999999999091
 10
794.7000000000000455
 20
164.5999999999999091
 10
792.9000000000000909
 20
162.7999999999999545
 10
792.9000000000000909
 20
156.6999999999998181
 10
794.2000000000000455
 20
155.3999999999998636
 10
795.1000000000001364
 20
155.4000000000000909
 10
795.1000000000001364
 20
153.9999999999997726
 10
793.7000000000000455
 20
154.0
 10
791.5
 20
156.2000000000000455
 10
791.5
 20
163.3999999999998636
 10
794.1000000000001364
 20
166.0
  0
LWPOLYLINE
  5
7E
  8
1
 62
5
420
255
370
0
  6
CONTINUOUS
100
AcDbEntity
100
AcDbPolyline
 90
12
 70
1
 10
954.9000000000000909
 20
166.0
 10
954.9000000000000909
 20
164.5999999999999091
 10
955.2999999999999545
 20
164.5999999999999091
 10
957.0999999999999091
 20
162.7999999999999545
 10
957.0999999999999091
 20
156.6999999999998181
 10
955.7999999999999545
 20
155.3999999999998636
 10
954.8999999999998636
 20
155.4000000000000909
 10
954.8999999999998636
 20
153.9999999999997726
 10
956.2999999999999545
 20
154.0
 10
958.5
 20
156.2000000000000455
 10
958.5
 20
163.3999999999998636
 10
955.8999999999998636
 20
166.0
  0
LWPOLYLINE
  5
7F
  8
1
 62
5
420
255
370
0
  6
CONTINUOUS
100
AcDbEntity
100
AcDbPolyline
 90
12
 70
1
 10
955.0999999999999091
 20
166.0
 10
955.0999999999999091
 20
164.5999999999999091
 10
954.7000000000000455
 20
164.5999999999999091
 10
952.9000000000000909
 20
162.7999999999999545
 10
952.9000000000000909
 20
156.6999999999998181
 10
954.2000000000000455
 20
155.3999999999998636
 10
955.1000000000001364
 20
155.4000000000000909
 10
955.1000000000001364
 20
153.9999999999997726
 10
953.7000000000000455
 20
154.0
 10
951.5
 20
156.2000000000000455
 10
951.5
 20
163.3999999999998636
 10
954.1000000000001364
 20
166.0
  0
LWPOLYLINE
  5
80
  8
1
 62
5
420
255
370
0
  6
CONTINUOUS
100
AcDbEntity
100
AcDbPolyline
 90
29
 70
1
 10
642.3999999999998636
 20
162.9999999999997726
 10
641.0
 20
162.9999999999997726
 10
641.0
 20
164.4000000000000909
 10
642.6000000000001364
 20
166.0
 10
647.3999999999998636
 20
165.9999999999997726
 10
649.0
 20
164.3999999999998636
 10
649.0
 20
161.2499999999997726
 10
647.7000000000000455
 20
160.0
 10
649.0
 20
158.7499999999997726
 10
649.0
 20
155.5999999999999091
 10
647.3999999999998636
 20
153.9999999999997726
 10
642.5999999999999091
 20
153.9999999999997726
 10
641.0
 20
155.5999999999999091
 10
641.0
 20
157.0
 10
642.4000000000000909
 20
157.0
 10
642.4000000000000909
 20
156.1999999999998181
 10
643.2000000000000455
 20
155.3999999999998636
 10
646.7999999999999545
 20
155.3999999999998636
 10
647.5999999999999091
 20
156.1999999999998181
 10
647.6000000000001364
 20
158.0999999999999091
 10
646.4000000000000909
 20
159.2999999999999545
 10
644.6999999999998181
 20
159.2999999999999545
 10
644.6999999999998181
 20
160.7000000000000455
 10
646.4000000000000909
 20
160.7000000000000455
 10
647.6000000000001364
 20
161.8999999999998636
 10
647.5999999999999091
 20
163.7999999999999545
 10
646.7999999999999545
 20
164.5999999999999091
 10
643.2000000000000455
 20
164.5999999999999091
 10
642.4000000000000909
 20
163.7999999999999545
  0
LWPOLYLINE
  5
81
  8
1
 62
5
420
255
370
0
  6
CONTINUOUS
100
AcDbEntity
100
AcDbPolyline
 90
8
 70
1
 10
801.5
 20
158.9999999999997726
 10
801.5
 20
157.5999999999999091
 10
803.1999999999998181
 20
157.5999999999999091
 10
803.2000000000000455
 20
159.0
 10
806.0
 20
163.4999999999997726
 10
807.4000000000000909
 20
163.4999999999997726
 10
807.4000000000000909
 20
165.9999999999997726
 10
806.0
 20
165.9999999999997726
  0
LWPOLYLINE
  5
82
  8
1
 62
5
420
255
370
0
  6
CONTINUOUS
100
AcDbEntity
100
AcDbPolyline
 90
12
 70
1
 10
803.0
 20
159.0
 10
803.0
 20
157.5999999999999091
 10
806.0
 20
157.5999999999999091
 10
806.0
 20
154.0
 10
807.4000000000000909
 20
154.0
 10
807.4000000000000909
 20
157.5999999999999091
 10
808.5
 20
157.5999999999999091
 10
808.5
 20
158.9999999999997726
 10
807.4000000000000909
 20
159.0
 10
807.4000000000000909
 20
163.6999999999998181
 10
806.0
 20
163.6999999999998181
 10
806.0
 20
159.0
  0
LWPOLYLINE
  5
83
  8
1
 62
5
420
255
370
0
  6
CONTINUOUS
100
AcDbEntity
100
AcDbPolyline
 90
20
 70
1
 10
969.0
 20
159.3999999999998636
 10
969.0
 20
155.5999999999999091
 10
967.3999999999998636
 20
153.9999999999997726
 10
962.5999999999999091
 20
153.9999999999997726
 10
961.0
 20
155.5999999999999091
 10
961.0
 20
157.0
 10
962.4000000000000909
 20
157.0
 10
962.4000000000000909
 20
156.1999999999998181
 10
963.2000000000000455
 20
155.3999999999998636
 10
966.7999999999999545
 20
155.3999999999998636
 10
967.5999999999999091
 20
156.1999999999998181
 10
967.5999999999999091
 20
158.7999999999999545
 10
966.7999999999999545
 20
159.5999999999999091
 10
961.0
 20
159.5999999999999091
 10
961.0
 20
166.0
 10
969.0
 20
166.0
 10
969.0
 20
164.5999999999999091
 10
962.4000000000000909
 20
164.5999999999999091
 10
962.3999999999998636
 20
160.9999999999997726
 10
967.3999999999998636
 20
161.0
  0
LWPOLYLINE
  5
84
  8
1
 62
5
420
255
370
0
  6
CONTINUOUS
100
AcDbEntity
100
AcDbPolyline
 90
29
 70
1
 10
642.3999999999998636
 20
322.9999999999997726
 10
641.0
 20
322.9999999999997726
 10
641.0
 20
324.4000000000000909
 10
642.6000000000001364
 20
326.0
 10
647.3999999999998636
 20
325.9999999999997726
 10
649.0
 20
324.3999999999998636
 10
649.0
 20
321.2499999999997726
 10
647.7000000000000455
 20
320.0
 10
649.0
 20
318.7499999999997726
 10
649.0
 20
315.5999999999999091
 10
647.3999999999998636
 20
313.9999999999997726
 10
642.5999999999999091
 20
313.9999999999997726
 10
641.0
 20
315.5999999999999091
 10
641.0
 20
317.0
 10
642.4000000000000909
 20
317.0
 10
642.4000000000000909
 20
316.1999999999998181
 10
643.2000000000000455
 20
315.3999999999998636
 10
646.7999999999999545
 20
315.3999999999998636
 10
647.5999999999999091
 20
316.1999999999998181
 10
647.6000000000001364
 20
318.0999999999999091
 10
646.4000000000000909
 20
319.2999999999999545
 10
644.6999999999998181
 20
319.2999999999999545
 10
644.6999999999998181
 20
320.7000000000000455
 10
646.4000000000000909
 20
320.7000000000000455
 10
647.6000000000001364
 20
321.8999999999998636
 10
647.5999999999999091
 20
323.7999999999999545
 10
646.7999999999999545
 20
324.5999999999999091
 10
643.2000000000000455
 20
324.5999999999999091
 10
642.4000000000000909
 20
323.7999999999999545
  0
LWPOLYLINE
  5
85
  8
1
 62
5
420
255
370
0
  6
CONTINUOUS
100
AcDbEntity
100
AcDbPolyline
 90
8
 70
1
 10
801.5
 20
318.9999999999997726
 10
801.5
 20
317.5999999999999091
 10
803.1999999999998181
 20
317.5999999999999091
 10
803.2000000000000455
 20
319.0
 10
806.0
 20
323.4999999999997726
 10
807.4000000000000909
 20
323.4999999999997726
 10
807.4000000000000909
 20
325.9999999999997726
 10
806.0
 20
325.9999999999997726
  0
LWPOLYLINE
  5
86
  8
1
 62
5
420
255
370
0
  6
CONTINUOUS
100
AcDbEntity
100
AcDbPolyline
 90
12
 70
1
 10
803.0
 20
319.0
 10
803.0
 20
317.5999999999999091
 10
806.0
 20
317.5999999999999091
 10
806.0
 20
314.0
 10
807.4000000000000909
 20
314.0
 10
807.4000000000000909
 20
317.5999999999999091
 10
808.5
 20
317.5999999999999091
 10
808.5
 20
318.9999999999997726
 10
807.4000000000000909
 20
319.0
 10
807.4000000000000909
 20
323.6999999999998181
 10
806.0
 20
323.6999999999998181
 10
806.0
 20
319.0
  0
LWPOLYLINE
  5
87
  8
1
 62
5
420
255
370
0
  6
CONTINUOUS
100
AcDbEntity
100
AcDbPolyline
 90
20
 70
1
 10
969.0
 20
319.3999999999998636
 10
969.0
 20
315.5999999999999091
 10
967.3999999999998636
 20
313.9999999999997726
 10
962.5999999999999091
 20
313.9999999999997726
 10
961.0
 20
315.5999999999999091
 10
961.0
 20
317.0
 10
962.4000000000000909
 20
317.0
 10
962.4000000000000909
 20
316.1999999999998181
 10
963.2000000000000455
 20
315.3999999999998636
 10
966.7999999999999545
 20
315.3999999999998636
 10
967.5999999999999091
 20
316.1999999999998181
 10
967.5999999999999091
 20
318.7999999999999545
 10
966.7999999999999545
 20
319.5999999999999091
 10
961.0
 20
319.5999999999999091
 10
961.0
 20
326.0
 10
969.0
 20
326.0
 10
969.0
 20
324.5999999999999091
 10
962.4000000000000909
 20
324.5999999999999091
 10
962.3999999999998636
 20
320.9999999999997726
 10
967.3999999999998636
 20
321.0
  0
LWPOLYLINE
  5
88
  8
1
 62
5
420
255
370
0
  6
CONTINUOUS
100
AcDbEntity
100
AcDbPolyline
 90
29
 70
1
 10
642.3999999999998636
 20
482.9999999999997726
 10
641.0
 20
482.9999999999997726
 10
641.0
 20
484.4000000000000909
 10
642.6000000000001364
 20
486.0
 10
647.3999999999998636
 20
485.9999999999997726
 10
649.0
 20
484.3999999999998636
 10
649.0
 20
481.2499999999997726
 10
647.7000000000000455
 20
480.0
 10
649.0
 20
478.7499999999997726
 10
649.0
 20
475.5999999999999091
 10
647.3999999999998636
 20
473.9999999999997726
 10
642.5999999999999091
 20
473.9999999999997726
 10
641.0
 20
475.5999999999999091
 10
641.0
 20
477.0
 10
642.4000000000000909
 20
477.0
 10
642.4000000000000909
 20
476.1999999999998181
 10
643.2000000000000455
 20
475.3999999999998636
 10
646.7999999999999545
 20
475.3999999999998636
 10
647.5999999999999091
 20
476.1999999999998181
 10
647.6000000000001364
 20
478.0999999999999091
 10
646.4000000000000909
 20
479.2999999999999545
 10
644.6999999999998181
 20
479.2999999999999545
 10
644.6999999999998181
 20
480.7000000000000455
 10
646.4000000000000909
 20
480.7000000000000455
 10
647.6000000000001364
 20
481.8999999999998636
 10
647.5999999999999091
 20
483.7999999999999545
 10
646.7999999999999545
 20
484.5999999999999091
 10
643.2000000000000455
 20
484.5999999999999091
 10
642.4000000000000909
 20
483.7999999999999545
  0
LWPOLYLINE
  5
89
  8
1
 62
5
420
255
370
0
  6
CONTINUOUS
100
AcDbEntity
100
AcDbPolyline
 90
8
 70
1
 10
801.5
 20
478.9999999999997726
 10
801.5
 20
477.5999999999999091
 10
803.1999999999998181
 20
477.5999999999999091
 10
803.2000000000000455
 20
479.0
 10
806.0
 20
483.4999999999997726
 10
807.4000000000000909
 20
483.4999999999997726
 10
807.4000000000000909
 20
485.9999999999997726
 10
806.0
 20
485.9999999999997726
  0
LWPOLYLINE
  5
8A
  8
1
 62
5
420
255
370
0
  6
CONTINUOUS
100
AcDbEntity
100
AcDbPolyline
 90
12
 70
1
 10
803.0
 20
479.0
 10
803.0
 20
477.5999999999999091
 10
806.0
 20
477.5999999999999091
 10
806.0
 20
474.0
 10
807.4000000000000909
 20
474.0
 10
807.4000000000000909
 20
477.5999999999999091
 10
808.5
 20
477.5999999999999091
 10
808.5
 20
478.9999999999997726
 10
807.4000000000000909
 20
479.0
 10
807.4000000000000909
 20
483.6999999999998181
 10
806.0
 20
483.6999999999998181
 10
806.0
 20
479.0
  0
LWPOLYLINE
  5
8B
  8
1
 62
5
420
255
370
0
  6
CONTINUOUS
100
AcDbEntity
100
AcDbPolyline
 90
20
 70
1
 10
969.0
 20
479.3999999999998636
 10
969.0
 20
475.5999999999999091
 10
967.3999999999998636
 20
473.9999999999997726
 10
962.5999999999999091
 20
473.9999999999997726
 10
961.0
 20
475.5999999999999091
 10
961.0
 20
477.0
 10
962.4000000000000909
 20
477.0
 10
962.4000000000000909
 20
476.1999999999998181
 10
963.2000000000000455
 20
475.3999999999998636
 10
966.7999999999999545
 20
475.3999999999998636
 10
967.5999999999999091
 20
476.1999999999998181
 10
967.5999999999999091
 20
478.7999999999999545
 10
966.7999999999999545
 20
479.5999999999999091
 10
961.0
 20
479.5999999999999091
 10
961.0
 20
486.0
 10
969.0
 20
486.0
 10
969.0
 20
484.5999999999999091
 10
962.4000000000000909
 20
484.5999999999999091
 10
962.3999999999998636
 20
480.9999999999997726
 10
967.3999999999998636
 20
481.0
  0
LWPOLYLINE
  5
8C
  8
1
 62
5
420
255
370
-1
  6
ByLayer
100
AcDbEntity
100
AcDbPolyline
 90
11
 70
1
 10
637.2000000000000455
 20
313.9999999999997726
 10
637.2000000000000455
 20
315.3999999999998636
 10
635.6999999999998181
 20
315.4000000000000909
 10
635.6999999999998181
 20
325.9999999999997726
 10
634.7000000000000455
 20
325.9999999999997726
 10
633.2000000000000455
 20
324.5
 10
633.2000000000000455
 20
323.7000000000000455
 10
634.3000000000001819
 20
323.7000000000000455
 10
634.2999999999999545
 20
315.3999999999998636
 10
632.7999999999999545
 20
315.3999999999998636
 10
632.7999999999999545
 20
313.9999999999997726
  0
LWPOLYLINE
  5
8D
  8
1
 62
5
420
255
370
0
  6
CONTINUOUS
100
AcDbEntity
100
AcDbPolyline
 90
16
 70
1
 10
638.5
 20
473.9999999999997726
 10
631.5
 20
473.9999999999997726
 10
631.5
 20
475.5999999999999091
 10
637.0999999999999091
 20
482.2999999999999545
 10
637.0999999999999091
 20
483.2000000000000455
 10
635.7000000000000455
 20
484.5999999999999091
 10
634.2999999999999545
 20
484.5999999999999091
 10
632.8999999999998636
 20
483.1999999999998181
 10
631.5
 20
483.1999999999998181
 10
631.5
 20
483.7999999999999545
 10
633.7000000000000455
 20
486.0
 10
636.2999999999999545
 20
486.0
 10
638.5
 20
483.7999999999999545
 10
638.5
 20
481.5999999999999091
 10
633.5
 20
475.3999999999998636
 10
638.5
 20
475.3999999999998636
  0
LWPOLYLINE
  5
8E
  8
1
 62
5
420
255
370
-1
  6
ByLayer
100
AcDbEntity
100
AcDbPolyline
 90
11
 70
1
 10
797.2000000000000455
 20
313.9999999999997726
 10
797.2000000000000455
 20
315.3999999999998636
 10
795.6999999999998181
 20
315.4000000000000909
 10
795.6999999999998181
 20
325.9999999999997726
 10
794.7000000000000455
 20
325.9999999999997726
 10
793.2000000000000455
 20
324.5
 10
793.2000000000000455
 20
323.7000000000000455
 10
794.3000000000001819
 20
323.7000000000000455
 10
794.2999999999999545
 20
315.3999999999998636
 10
792.7999999999999545
 20
315.3999999999998636
 10
792.7999999999999545
 20
313.9999999999997726
  0
LWPOLYLINE
  5
8F
  8
1
 62
5
420
255
370
0
  6
CONTINUOUS
100
AcDbEntity
100
AcDbPolyline
 90
16
 70
1
 10
798.5
 20
473.9999999999997726
 10
791.5
 20
473.9999999999997726
 10
791.5
 20
475.5999999999999091
 10
797.0999999999999091
 20
482.2999999999999545
 10
797.0999999999999091
 20
483.2000000000000455
 10
795.7000000000000455
 20
484.5999999999999091
 10
794.2999999999999545
 20
484.5999999999999091
 10
792.8999999999998636
 20
483.1999999999998181
 10
791.5
 20
483.1999999999998181
 10
791.5
 20
483.7999999999999545
 10
793.7000000000000455
 20
486.0
 10
796.2999999999999545
 20
486.0
 10
798.5
 20
483.7999999999999545
 10
798.5
 20
481.5999999999999091
 10
793.5
 20
475.3999999999998636
 10
798.5
 20
475.3999999999998636
  0
LWPOLYLINE
  5
90
  8
1
 62
5
420
255
370
-1
  6
ByLayer
100
AcDbEntity
100
AcDbPolyline
 90
11
 70
1
 10
957.2000000000000455
 20
313.9999999999997726
 10
957.2000000000000455
 20
315.3999999999998636
 10
955.6999999999998181
 20
315.4000000000000909
 10
955.6999999999998181
 20
325.9999999999997726
 10
954.7000000000000455
 20
325.9999999999997726
 10
953.2000000000000455
 20
324.5
 10
953.2000000000000455
 20
323.7000000000000455
 10
954.3000000000001819
 20
323.7000000000000455
 10
954.2999999999999545
 20
315.3999999999998636
 10
952.7999999999999545
 20
315.3999999999998636
 10
952.7999999999999545
 20
313.9999999999997726
  0
LWPOLYLINE
  5
91
  8
1
 62
5
420
255
370
0
  6
CONTINUOUS
100
AcDbEntity
100
AcDbPolyline
 90
16
 70
1
 10
958.5
 20
473.9999999999997726
 10
951.5
 20
473.9999999999997726
 10
951.5
 20
475.5999999999999091
 10
957.0999999999999091
 20
482.2999999999999545
 10
957.0999999999999091
 20
483.2000000000000455
 10
955.7000000000000455
 20
484.5999999999999091
 10
954.2999999999999545
 20
484.5999999999999091
 10
952.8999999999998636
 20
483.1999999999998181
 10
951.5
 20
483.1999999999998181
 10
951.5
 20
483.7999999999999545
 10
953.7000000000000455
 20
486.0
 10
956.2999999999999545
 20
486.0
 10
958.5
 20
483.7999999999999545
 10
958.5
 20
481.5999999999999091
 10
953.5
 20
475.3999999999998636
 10
958.5
 20
475.3999999999998636
  0
LWPOLYLINE
  5
92
  8
1
 62
5
420
255
370
0
  6
CONTINUOUS
100
AcDbEntity
100
AcDbPolyline
 90
12
 70
1
 10
559.0
 20
84.0
 10
559.0
 20
81.0
 10
556.0
 20
81.0
 10
556.0
 20
79.0
 10
559.0
 20
79.0
 10
559.0
 20
76.0
 10
561.0
 20
76.0
 10
561.0
 20
79.0
 10
564.0
 20
79.0
 10
564.0
 20
81.0
 10
561.0
 20
81.0
 10
561.0
 20
84.0
  0
LWPOLYLINE
  5
93
  8
1
 62
5
420
255
370
0
  6
CONTINUOUS
100
AcDbEntity
100
AcDbPolyline
 90
12
 70
1
 10
639.0
 20
84.0
 10
639.0
 20
81.0
 10
636.0
 20
81.0
 10
636.0
 20
79.0
 10
639.0
 20
79.0
 10
639.0
 20
76.0
 10
641.0
 20
76.0
 10
641.0
 20
79.0
 10
644.0
 20
79.0
 10
644.0
 20
81.0
 10
641.0
 20
81.0
 10
641.0
 20
84.0
  0
LWPOLYLINE
  5
94
  8
1
 62
5
420
255
370
0
  6
CONTINUOUS
100
AcDbEntity
100
AcDbPolyline
 90
12
 70
1
 10
719.0
 20
84.0
 10
719.0
 20
81.0
 10
716.0
 20
81.0
 10
716.0
 20
79.0
 10
719.0
 20
79.0
 10
719.0
 20
76.0
 10
721.0
 20
76.0
 10
721.0
 20
79.0
 10
724.0
 20
79.0
 10
724.0
 20
81.0
 10
721.0
 20
81.0
 10
721.0
 20
84.0
  0
LWPOLYLINE
  5
95
  8
1
 62
5
420
255
370
0
  6
CONTINUOUS
100
AcDbEntity
100
AcDbPolyline
 90
12
 70
1
 10
799.0
 20
84.0
 10
799.0
 20
81.0
 10
796.0
 20
81.0
 10
796.0
 20
79.0
 10
799.0
 20
79.0
 10
799.0
 20
76.0
 10
801.0
 20
76.0
 10
801.0
 20
79.0
 10
804.0
 20
79.0
 10
804.0
 20
81.0
 10
801.0
 20
81.0
 10
801.0
 20
84.0
  0
LWPOLYLINE
  5
96
  8
1
 62
5
420
255
370
0
  6
CONTINUOUS
100
AcDbEntity
100
AcDbPolyline
 90
12
 70
1
 10
879.0
 20
84.0
 10
879.0
 20
81.0
 10
876.0
 20
81.0
 10
876.0
 20
79.0
 10
879.0
 20
79.0
 10
879.0
 20
76.0
 10
881.0
 20
76.0
 10
881.0
 20
79.0
 10
884.0
 20
79.0
 10
884.0
 20
81.0
 10
881.0
 20
81.0
 10
881.0
 20
84.0
  0
LWPOLYLINE
  5
97
  8
1
 62
5
420
255
370
0
  6
CONTINUOUS
100
AcDbEntity
100
AcDbPolyline
 90
12
 70
1
 10
959.0
 20
84.0
 10
959.0
 20
81.0
 10
956.0
 20
81.0
 10
956.0
 20
79.0
 10
959.0
 20
79.0
 10
959.0
 20
76.0
 10
961.0
 20
76.0
 10
961.0
 20
79.0
 10
964.0
 20
79.0
 10
964.0
 20
81.0
 10
961.0
 20
81.0
 10
961.0
 20
84.0
  0
LWPOLYLINE
  5
98
  8
1
 62
5
420
255
370
0
  6
CONTINUOUS
100
AcDbEntity
100
AcDbPolyline
 90
12
 70
1
 10
1039.0
 20
84.0
 10
1039.0
 20
81.0
 10
1036.0
 20
81.0
 10
1036.0
 20
79.0
 10
1039.0
 20
79.0
 10
1039.0
 20
76.0
 10
1041.0
 20
76.0
 10
1041.0
 20
79.0
 10
1044.0
 20
79.0
 10
1044.0
 20
81.0
 10
1041.0
 20
81.0
 10
1041.0
 20
84.0
  0
LWPOLYLINE
  5
99
  8
1
 62
5
420
255
370
0
  6
CONTINUOUS
100
AcDbEntity
100
AcDbPolyline
 90
12
 70
1
 10
559.0
 20
164.0
 10
559.0
 20
161.0
 10
556.0
 20
161.0
 10
556.0
 20
159.0
 10
559.0
 20
159.0
 10
559.0
 20
156.0
 10
561.0
 20
156.0
 10
561.0
 20
159.0
 10
564.0
 20
159.0
 10
564.0
 20
161.0
 10
561.0
 20
161.0
 10
561.0
 20
164.0
  0
LWPOLYLINE
  5
9A
  8
1
 62
5
420
255
370
0
  6
CONTINUOUS
100
AcDbEntity
100
AcDbPolyline
 90
12
 70
1
 10
719.0
 20
164.0
 10
719.0
 20
161.0
 10
716.0
 20
161.0
 10
716.0
 20
159.0
 10
719.0
 20
159.0
 10
719.0
 20
156.0
 10
721.0
 20
156.0
 10
721.0
 20
159.0
 10
724.0
 20
159.0
 10
724.0
 20
161.0
 10
721.0
 20
161.0
 10
721.0
 20
164.0
  0
LWPOLYLINE
  5
9B
  8
1
 62
5
420
255
370
0
  6
CONTINUOUS
100
AcDbEntity
100
AcDbPolyline
 90
12
 70
1
 10
879.0
 20
164.0
 10
879.0
 20
161.0
 10
876.0
 20
161.0
 10
876.0
 20
159.0
 10
879.0
 20
159.0
 10
879.0
 20
156.0
 10
881.0
 20
156.0
 10
881.0
 20
159.0
 10
884.0
 20
159.0
 10
884.0
 20
161.0
 10
881.0
 20
161.0
 10
881.0
 20
164.0
  0
LWPOLYLINE
  5
9C
  8
1
 62
5
420
255
370
0
  6
CONTINUOUS
100
AcDbEntity
100
AcDbPolyline
 90
12
 70
1
 10
1039.0
 20
164.0
 10
1039.0
 20
161.0
 10
1036.0
 20
161.0
 10
1036.0
 20
159.0
 10
1039.0
 20
159.0
 10
1039.0
 20
156.0
 10
1041.0
 20
156.0
 10
1041.0
 20
159.0
 10
1044.0
 20
159.0
 10
1044.0
 20
161.0
 10
1041.0
 20
161.0
 10
1041.0
 20
164.0
  0
LWPOLYLINE
  5
9D
  8
1
 62
5
420
255
370
0
  6
CONTINUOUS
100
AcDbEntity
100
AcDbPolyline
 90
12
 70
1
 10
559.0
 20
244.0
 10
559.0
 20
241.0
 10
556.0
 20
241.0
 10
556.0
 20
239.0
 10
559.0
 20
239.0
 10
559.0
 20
236.0
 10
561.0
 20
236.0
 10
561.0
 20
239.0
 10
564.0
 20
239.0
 10
564.0
 20
241.0
 10
561.0
 20
241.0
 10
561.0
 20
244.0
  0
LWPOLYLINE
  5
9E
  8
1
 62
5
420
255
370
0
  6
CONTINUOUS
100
AcDbEntity
100
AcDbPolyline
 90
12
 70
1
 10
639.0
 20
244.0
 10
639.0
 20
241.0
 10
636.0
 20
241.0
 10
636.0
 20
239.0
 10
639.0
 20
239.0
 10
639.0
 20
236.0
 10
641.0
 20
236.0
 10
641.0
 20
239.0
 10
644.0
 20
239.0
 10
644.0
 20
241.0
 10
641.0
 20
241.0
 10
641.0
 20
244.0
  0
LWPOLYLINE
  5
9F
  8
1
 62
5
420
255
370
0
  6
CONTINUOUS
100
AcDbEntity
100
AcDbPolyline
 90
12
 70
1
 10
719.0
 20
244.0
 10
719.0
 20
241.0
 10
716.0
 20
241.0
 10
716.0
 20
239.0
 10
719.0
 20
239.0
 10
719.0
 20
236.0
 10
721.0
 20
236.0
 10
721.0
 20
239.0
 10
724.0
 20
239.0
 10
724.0
 20
241.0
 10
721.0
 20
241.0
 10
721.0
 20
244.0
  0
LWPOLYLINE
  5
A0
  8
1
 62
5
420
255
370
0
  6
CONTINUOUS
100
AcDbEntity
100
AcDbPolyline
 90
12
 70
1
 10
799.0
 20
244.0
 10
799.0
 20
241.0
 10
796.0
 20
241.0
 10
796.0
 20
239.0
 10
799.0
 20
239.0
 10
799.0
 20
236.0
 10
801.0
 20
236.0
 10
801.0
 20
239.0
 10
804.0
 20
239.0
 10
804.0
 20
241.0
 10
801.0
 20
241.0
 10
801.0
 20
244.0
  0
LWPOLYLINE
  5
A1
  8
1
 62
5
420
255
370
0
  6
CONTINUOUS
100
AcDbEntity
100
AcDbPolyline
 90
12
 70
1
 10
879.0
 20
244.0
 10
879.0
 20
241.0
 10
876.0
 20
241.0
 10
876.0
 20
239.0
 10
879.0
 20
239.0
 10
879.0
 20
236.0
 10
881.0
 20
236.0
 10
881.0
 20
239.0
 10
884.0
 20
239.0
 10
884.0
 20
241.0
 10
881.0
 20
241.0
 10
881.0
 20
244.0
  0
LWPOLYLINE
  5
A2
  8
1
 62
5
420
255
370
0
  6
CONTINUOUS
100
AcDbEntity
100
AcDbPolyline
 90
12
 70
1
 10
959.0
 20
244.0
 10
959.0
 20
241.0
 10
956.0
 20
241.0
 10
956.0
 20
239.0
 10
959.0
 20
239.0
 10
959.0
 20
236.0
 10
961.0
 20
236.0
 10
961.0
 20
239.0
 10
964.0
 20
239.0
 10
964.0
 20
241.0
 10
961.0
 20
241.0
 10
961.0
 20
244.0
  0
LWPOLYLINE
  5
A3
  8
1
 62
5
420
255
370
0
  6
CONTINUOUS
100
AcDbEntity
100
AcDbPolyline
 90
12
 70
1
 10
1039.0
 20
244.0
 10
1039.0
 20
241.0
 10
1036.0
 20
241.0
 10
1036.0
 20
239.0
 10
1039.0
 20
239.0
 10
1039.0
 20
236.0
 10
1041.0
 20
236.0
 10
1041.0
 20
239.0
 10
1044.0
 20
239.0
 10
1044.0
 20
241.0
 10
1041.0
 20
241.0
 10
1041.0
 20
244.0
  0
LWPOLYLINE
  5
A4
  8
1
 62
5
420
255
370
0
  6
CONTINUOUS
100
AcDbEntity
100
AcDbPolyline
 90
12
 70
1
 10
559.0
 20
324.0
 10
559.0
 20
321.0
 10
556.0
 20
321.0
 10
556.0
 20
319.0
 10
559.0
 20
319.0
 10
559.0
 20
316.0
 10
561.0
 20
316.0
 10
561.0
 20
319.0
 10
564.0
 20
319.0
 10
564.0
 20
321.0
 10
561.0
 20
321.0
 10
561.0
 20
324.0
  0
LWPOLYLINE
  5
A5
  8
1
 62
5
420
255
370
0
  6
CONTINUOUS
100
AcDbEntity
100
AcDbPolyline
 90
12
 70
1
 10
719.0
 20
324.0
 10
719.0
 20
321.0
 10
716.0
 20
321.0
 10
716.0
 20
319.0
 10
719.0
 20
319.0
 10
719.0
 20
316.0
 10
721.0
 20
316.0
 10
721.0
 20
319.0
 10
724.0
 20
319.0
 10
724.0
 20
321.0
 10
721.0
 20
321.0
 10
721.0
 20
324.0
  0
LWPOLYLINE
  5
A6
  8
1
 62
5
420
255
370
0
  6
CONTINUOUS
100
AcDbEntity
100
AcDbPolyline
 90
12
 70
1
 10
879.0
 20
324.0
 10
879.0
 20
321.0
 10
876.0
 20
321.0
 10
876.0
 20
319.0
 10
879.0
 20
319.0
 10
879.0
 20
316.0
 10
881.0
 20
316.0
 10
881.0
 20
319.0
 10
884.0
 20
319.0
 10
884.0
 20
321.0
 10
881.0
 20
321.0
 10
881.0
 20
324.0
  0
LWPOLYLINE
  5
A7
  8
1
 62
5
420
255
370
0
  6
CONTINUOUS
100
AcDbEntity
100
AcDbPolyline
 90
12
 70
1
 10
1039.0
 20
324.0
 10
1039.0
 20
321.0
 10
1036.0
 20
321.0
 10
1036.0
 20
319.0
 10
1039.0
 20
319.0
 10
1039.0
 20
316.0
 10
1041.0
 20
316.0
 10
1041.0
 20
319.0
 10
1044.0
 20
319.0
 10
1044.0
 20
321.0
 10
1041.0
 20
321.0
 10
1041.0
 20
324.0
  0
LWPOLYLINE
  5
A8
  8
1
 62
5
420
255
370
0
  6
CONTINUOUS
100
AcDbEntity
100
AcDbPolyline
 90
12
 70
1
 10
559.0
 20
404.0
 10
559.0
 20
401.0
 10
556.0
 20
401.0
 10
556.0
 20
399.0
 10
559.0
 20
399.0
 10
559.0
 20
396.0
 10
561.0
 20
396.0
 10
561.0
 20
399.0
 10
564.0
 20
399.0
 10
564.0
 20
401.0
 10
561.0
 20
401.0
 10
561.0
 20
404.0
  0
LWPOLYLINE
  5
A9
  8
1
 62
5
420
255
370
0
  6
CONTINUOUS
100
AcDbEntity
100
AcDbPolyline
 90
12
 70
1
 10
639.0
 20
404.0
 10
639.0
 20
401.0
 10
636.0
 20
401.0
 10
636.0
 20
399.0
 10
639.0
 20
399.0
 10
639.0
 20
396.0
 10
641.0
 20
396.0
 10
641.0
 20
399.0
 10
644.0
 20
399.0
 10
644.0
 20
401.0
 10
641.0
 20
401.0
 10
641.0
 20
404.0
  0
LWPOLYLINE
  5
AA
  8
1
 62
5
420
255
370
0
  6
CONTINUOUS
100
AcDbEntity
100
AcDbPolyline
 90
12
 70
1
 10
719.0
 20
404.0
 10
719.0
 20
401.0
 10
716.0
 20
401.0
 10
716.0
 20
399.0
 10
719.0
 20
399.0
 10
719.0
 20
396.0
 10
721.0
 20
396.0
 10
721.0
 20
399.0
 10
724.0
 20
399.0
 10
724.0
 20
401.0
 10
721.0
 20
401.0
 10
721.0
 20
404.0
  0
LWPOLYLINE
  5
AB
  8
1
 62
5
420
255
370
0
  6
CONTINUOUS
100
AcDbEntity
100
AcDbPolyline
 90
12
 70
1
 10
799.0
 20
404.0
 10
799.0
 20
401.0
 10
796.0
 20
401.0
 10
796.0
 20
399.0
 10
799.0
 20
399.0
 10
799.0
 20
396.0
 10
801.0
 20
396.0
 10
801.0
 20
399.0
 10
804.0
 20
399.0
 10
804.0
 20
401.0
 10
801.0
 20
401.0
 10
801.0
 20
404.0
  0
LWPOLYLINE
  5
AC
  8
1
 62
5
420
255
370
0
  6
CONTINUOUS
100
AcDbEntity
100
AcDbPolyline
 90
12
 70
1
 10
879.0
 20
404.0
 10
879.0
 20
401.0
 10
876.0
 20
401.0
 10
876.0
 20
399.0
 10
879.0
 20
399.0
 10
879.0
 20
396.0
 10
881.0
 20
396.0
 10
881.0
 20
399.0
 10
884.0
 20
399.0
 10
884.0
 20
401.0
 10
881.0
 20
401.0
 10
881.0
 20
404.0
  0
LWPOLYLINE
  5
AD
  8
1
 62
5
420
255
370
0
  6
CONTINUOUS
100
AcDbEntity
100
AcDbPolyline
 90
12
 70
1
 10
959.0
 20
404.0
 10
959.0
 20
401.0
 10
956.0
 20
401.0
 10
956.0
 20
399.0
 10
959.0
 20
399.0
 10
959.0
 20
396.0
 10
961.0
 20
396.0
 10
961.0
 20
399.0
 10
964.0
 20
399.0
 10
964.0
 20
401.0
 10
961.0
 20
401.0
 10
961.0
 20
404.0
  0
LWPOLYLINE
  5
AE
  8
1
 62
5
420
255
370
0
  6
CONTINUOUS
100
AcDbEntity
100
AcDbPolyline
 90
12
 70
1
 10
1039.0
 20
404.0
 10
1039.0
 20
401.0
 10
1036.0
 20
401.0
 10
1036.0
 20
399.0
 10
1039.0
 20
399.0
 10
1039.0
 20
396.0
 10
1041.0
 20
396.0
 10
1041.0
 20
399.0
 10
1044.0
 20
399.0
 10
1044.0
 20
401.0
 10
1041.0
 20
401.0
 10
1041.0
 20
404.0
  0
LWPOLYLINE
  5
AF
  8
1
 62
5
420
255
370
0
  6
CONTINUOUS
100
AcDbEntity
100
AcDbPolyline
 90
12
 70
1
 10
559.0
 20
484.0
 10
559.0
 20
481.0
 10
556.0
 20
481.0
 10
556.0
 20
479.0
 10
559.0
 20
479.0
 10
559.0
 20
476.0
 10
561.0
 20
476.0
 10
561.0
 20
479.0
 10
564.0
 20
479.0
 10
564.0
 20
481.0
 10
561.0
 20
481.0
 10
561.0
 20
484.0
  0
LWPOLYLINE
  5
B0
  8
1
 62
5
420
255
370
0
  6
CONTINUOUS
100
AcDbEntity
100
AcDbPolyline
 90
12
 70
1
 10
719.0
 20
484.0
 10
719.0
 20
481.0
 10
716.0
 20
481.0
 10
716.0
 20
479.0
 10
719.0
 20
479.0
 10
719.0
 20
476.0
 10
721.0
 20
476.0
 10
721.0
 20
479.0
 10
724.0
 20
479.0
 10
724.0
 20
481.0
 10
721.0
 20
481.0
 10
721.0
 20
484.0
  0
LWPOLYLINE
  5
B1
  8
1
 62
5
420
255
370
0
  6
CONTINUOUS
100
AcDbEntity
100
AcDbPolyline
 90
12
 70
1
 10
879.0
 20
484.0
 10
879.0
 20
481.0
 10
876.0
 20
481.0
 10
876.0
 20
479.0
 10
879.0
 20
479.0
 10
879.0
 20
476.0
 10
881.0
 20
476.0
 10
881.0
 20
479.0
 10
884.0
 20
479.0
 10
884.0
 20
481.0
 10
881.0
 20
481.0
 10
881.0
 20
484.0
  0
LWPOLYLINE
  5
B2
  8
1
 62
5
420
255
370
0
  6
CONTINUOUS
100
AcDbEntity
100
AcDbPolyline
 90
12
 70
1
 10
1039.0
 20
484.0
 10
1039.0
 20
481.0
 10
1036.0
 20
481.0
 10
1036.0
 20
479.0
 10
1039.0
 20
479.0
 10
1039.0
 20
476.0
 10
1041.0
 20
476.0
 10
1041.0
 20
479.0
 10
1044.0
 20
479.0
 10
1044.0
 20
481.0
 10
1041.0
 20
481.0
 10
1041.0
 20
484.0
  0
LWPOLYLINE
  5
B3
  8
2
 62
5
420
255
370
0
  6
CONTINUOUS
100
AcDbEntity
100
AcDbPolyline
 90
29
 70
1
 10
642.3999999999998636
 20
642.9999999999997726
 10
641.0
 20
642.9999999999997726
 10
641.0
 20
644.4000000000000909
 10
642.6000000000001364
 20
646.0
 10
647.3999999999998636
 20
645.9999999999997726
 10
649.0
 20
644.3999999999998636
 10
649.0
 20
641.2499999999997726
 10
647.7000000000000455
 20
640.0
 10
649.0
 20
638.7499999999997726
 10
649.0
 20
635.5999999999999091
 10
647.3999999999998636
 20
633.9999999999997726
 10
642.5999999999999091
 20
633.9999999999997726
 10
641.0
 20
635.5999999999999091
 10
641.0
 20
637.0
 10
642.4000000000000909
 20
637.0
 10
642.4000000000000909
 20
636.1999999999998181
 10
643.2000000000000455
 20
635.3999999999998636
 10
646.7999999999999545
 20
635.3999999999998636
 10
647.5999999999999091
 20
636.1999999999998181
 10
647.6000000000001364
 20
638.0999999999999091
 10
646.4000000000000909
 20
639.2999999999999545
 10
644.6999999999998181
 20
639.2999999999999545
 10
644.6999999999998181
 20
640.7000000000000455
 10
646.4000000000000909
 20
640.7000000000000455
 10
647.6000000000001364
 20
641.8999999999998636
 10
647.5999999999999091
 20
643.7999999999999545
 10
646.7999999999999545
 20
644.5999999999999091
 10
643.2000000000000455
 20
644.5999999999999091
 10
642.4000000000000909
 20
643.7999999999999545
  0
LWPOLYLINE
  5
B4
  8
2
 62
5
420
255
370
0
  6
CONTINUOUS
100
AcDbEntity
100
AcDbPolyline
 90
8
 70
1
 10
801.5
 20
638.9999999999997726
 10
801.5
 20
637.5999999999999091
 10
803.1999999999998181
 20
637.5999999999999091
 10
803.2000000000000455
 20
639.0
 10
806.0
 20
643.4999999999997726
 10
807.4000000000000909
 20
643.4999999999997726
 10
807.4000000000000909
 20
645.9999999999997726
 10
806.0
 20
645.9999999999997726
  0
LWPOLYLINE
  5
B5
  8
2
 62
5
420
255
370
0
  6
CONTINUOUS
100
AcDbEntity
100
AcDbPolyline
 90
12
 70
1
 10
803.0
 20
639.0
 10
803.0
 20
637.5999999999999091
 10
806.0
 20
637.5999999999999091
 10
806.0
 20
634.0
 10
807.4000000000000909
 20
634.0
 10
807.4000000000000909
 20
637.5999999999999091
 10
808.5
 20
637.5999999999999091
 10
808.5
 20
638.9999999999997726
 10
807.4000000000000909
 20
639.0
 10
807.4000000000000909
 20
643.6999999999998181
 10
806.0
 20
643.6999999999998181
 10
806.0
 20
639.0
  0
LWPOLYLINE
  5
B6
  8
2
 62
5
420
255
370
0
  6
CONTINUOUS
100
AcDbEntity
100
AcDbPolyline
 90
20
 70
1
 10
969.0
 20
639.3999999999998636
 10
969.0
 20
635.5999999999999091
 10
967.3999999999998636
 20
633.9999999999997726
 10
962.5999999999999091
 20
633.9999999999997726
 10
961.0
 20
635.5999999999999091
 10
961.0
 20
637.0
 10
962.4000000000000909
 20
637.0
 10
962.4000000000000909
 20
636.1999999999998181
 10
963.2000000000000455
 20
635.3999999999998636
 10
966.7999999999999545
 20
635.3999999999998636
 10
967.5999999999999091
 20
636.1999999999998181
 10
967.5999999999999091
 20
638.7999999999999545
 10
966.7999999999999545
 20
639.5999999999999091
 10
961.0
 20
639.5999999999999091
 10
961.0
 20
646.0
 10
969.0
 20
646.0
 10
969.0
 20
644.5999999999999091
 10
962.4000000000000909
 20
644.5999999999999091
 10
962.3999999999998636
 20
640.9999999999997726
 10
967.3999999999998636
 20
641.0
  0
LWPOLYLINE
  5
B7
  8
2
 62
5
420
255
370
0
  6
CONTINUOUS
100
AcDbEntity
100
AcDbPolyline
 90
29
 70
1
 10
642.3999999999998636
 20
802.9999999999997726
 10
641.0
 20
802.9999999999997726
 10
641.0
 20
804.4000000000000909
 10
642.6000000000001364
 20
806.0
 10
647.3999999999998636
 20
805.9999999999997726
 10
649.0
 20
804.3999999999998636
 10
649.0
 20
801.2499999999997726
 10
647.7000000000000455
 20
800.0
 10
649.0
 20
798.7499999999997726
 10
649.0
 20
795.5999999999999091
 10
647.3999999999998636
 20
793.9999999999997726
 10
642.5999999999999091
 20
793.9999999999997726
 10
641.0
 20
795.5999999999999091
 10
641.0
 20
797.0
 10
642.4000000000000909
 20
797.0
 10
642.4000000000000909
 20
796.1999999999998181
 10
643.2000000000000455
 20
795.3999999999998636
 10
646.7999999999999545
 20
795.3999999999998636
 10
647.5999999999999091
 20
796.1999999999998181
 10
647.6000000000001364
 20
798.0999999999999091
 10
646.4000000000000909
 20
799.2999999999999545
 10
644.6999999999998181
 20
799.2999999999999545
 10
644.6999999999998181
 20
800.7000000000000455
 10
646.4000000000000909
 20
800.7000000000000455
 10
647.6000000000001364
 20
801.8999999999998636
 10
647.5999999999999091
 20
803.7999999999999545
 10
646.7999999999999545
 20
804.5999999999999091
 10
643.2000000000000455
 20
804.5999999999999091
 10
642.4000000000000909
 20
803.7999999999999545
  0
LWPOLYLINE
  5
B8
  8
2
 62
5
420
255
370
0
  6
CONTINUOUS
100
AcDbEntity
100
AcDbPolyline
 90
8
 70
1
 10
801.5
 20
798.9999999999997726
 10
801.5
 20
797.5999999999999091
 10
803.1999999999998181
 20
797.5999999999999091
 10
803.2000000000000455
 20
799.0
 10
806.0
 20
803.4999999999997726
 10
807.4000000000000909
 20
803.4999999999997726
 10
807.4000000000000909
 20
805.9999999999997726
 10
806.0
 20
805.9999999999997726
  0
LWPOLYLINE
  5
B9
  8
2
 62
5
420
255
370
0
  6
CONTINUOUS
100
AcDbEntity
100
AcDbPolyline
 90
12
 70
1
 10
803.0
 20
799.0
 10
803.0
 20
797.5999999999999091
 10
806.0
 20
797.5999999999999091
 10
806.0
 20
794.0
 10
807.4000000000000909
 20
794.0
 10
807.4000000000000909
 20
797.5999999999999091
 10
808.5
 20
797.5999999999999091
 10
808.5
 20
798.9999999999997726
 10
807.4000000000000909
 20
799.0
 10
807.4000000000000909
 20
803.6999999999998181
 10
806.0
 20
803.6999999999998181
 10
806.0
 20
799.0
  0
LWPOLYLINE
  5
BA
  8
2
 62
5
420
255
370
0
  6
CONTINUOUS
100
AcDbEntity
100
AcDbPolyline
 90
20
 70
1
 10
969.0
 20
799.3999999999998636
 10
969.0
 20
795.5999999999999091
 10
967.3999999999998636
 20
793.9999999999997726
 10
962.5999999999999091
 20
793.9999999999997726
 10
961.0
 20
795.5999999999999091
 10
961.0
 20
797.0
 10
962.4000000000000909
 20
797.0
 10
962.4000000000000909
 20
796.1999999999998181
 10
963.2000000000000455
 20
795.3999999999998636
 10
966.7999999999999545
 20
795.3999999999998636
 10
967.5999999999999091
 20
796.1999999999998181
 10
967.5999999999999091
 20
798.7999999999999545
 10
966.7999999999999545
 20
799.5999999999999091
 10
961.0
 20
799.5999999999999091
 10
961.0
 20
806.0
 10
969.0
 20
806.0
 10
969.0
 20
804.5999999999999091
 10
962.4000000000000909
 20
804.5999999999999091
 10
962.3999999999998636
 20
800.9999999999997726
 10
967.3999999999998636
 20
801.0
  0
LWPOLYLINE
  5
BB
  8
2
 62
5
420
255
370
0
  6
CONTINUOUS
100
AcDbEntity
100
AcDbPolyline
 90
29
 70
1
 10
642.3999999999998636
 20
962.9999999999997726
 10
641.0
 20
962.9999999999997726
 10
641.0
 20
964.4000000000000909
 10
642.6000000000001364
 20
966.0
 10
647.3999999999998636
 20
965.9999999999997726
 10
649.0
 20
964.3999999999998636
 10
649.0
 20
961.2499999999997726
 10
647.7000000000000455
 20
960.0
 10
649.0
 20
958.7499999999997726
 10
649.0
 20
955.5999999999999091
 10
647.3999999999998636
 20
953.9999999999997726
 10
642.5999999999999091
 20
953.9999999999997726
 10
641.0
 20
955.5999999999999091
 10
641.0
 20
957.0
 10
642.4000000000000909
 20
957.0
 10
642.4000000000000909
 20
956.1999999999998181
 10
643.2000000000000455
 20
955.3999999999998636
 10
646.7999999999999545
 20
955.3999999999998636
 10
647.5999999999999091
 20
956.1999999999998181
 10
647.6000000000001364
 20
958.0999999999999091
 10
646.4000000000000909
 20
959.2999999999999545
 10
644.6999999999998181
 20
959.2999999999999545
 10
644.6999999999998181
 20
960.7000000000000455
 10
646.4000000000000909
 20
960.7000000000000455
 10
647.6000000000001364
 20
961.8999999999998636
 10
647.5999999999999091
 20
963.7999999999999545
 10
646.7999999999999545
 20
964.5999999999999091
 10
643.2000000000000455
 20
964.5999999999999091
 10
642.4000000000000909
 20
963.7999999999999545
  0
LWPOLYLINE
  5
BC
  8
2
 62
5
420
255
370
0
  6
CONTINUOUS
100
AcDbEntity
100
AcDbPolyline
 90
8
 70
1
 10
801.5
 20
958.9999999999997726
 10
801.5
 20
957.5999999999999091
 10
803.1999999999998181
 20
957.5999999999999091
 10
803.2000000000000455
 20
959.0
 10
806.0
 20
963.4999999999997726
 10
807.4000000000000909
 20
963.4999999999997726
 10
807.4000000000000909
 20
965.9999999999997726
 10
806.0
 20
965.9999999999997726
  0
LWPOLYLINE
  5
BD
  8
2
 62
5
420
255
370
0
  6
CONTINUOUS
100
AcDbEntity
100
AcDbPolyline
 90
12
 70
1
 10
803.0
 20
959.0
 10
803.0
 20
957.5999999999999091
 10
806.0
 20
957.5999999999999091
 10
806.0
 20
954.0
 10
807.4000000000000909
 20
954.0
 10
807.4000000000000909
 20
957.5999999999999091
 10
808.5
 20
957.5999999999999091
 10
808.5
 20
958.9999999999997726
 10
807.4000000000000909
 20
959.0
 10
807.4000000000000909
 20
963.6999999999998181
 10
806.0
 20
963.6999999999998181
 10
806.0
 20
959.0
  0
LWPOLYLINE
  5
BE
  8
2
 62
5
420
255
370
0
  6
CONTINUOUS
100
AcDbEntity
100
AcDbPolyline
 90
20
 70
1
 10
969.0
 20
959.3999999999998636
 10
969.0
 20
955.5999999999999091
 10
967.3999999999998636
 20
953.9999999999997726
 10
962.5999999999999091
 20
953.9999999999997726
 10
961.0
 20
955.5999999999999091
 10
961.0
 20
957.0
 10
962.4000000000000909
 20
957.0
 10
962.4000000000000909
 20
956.1999999999998181
 10
963.2000000000000455
 20
955.3999999999998636
 10
966.7999999999999545
 20
955.3999999999998636
 10
967.5999999999999091
 20
956.1999999999998181
 10
967.5999999999999091
 20
958.7999999999999545
 10
966.7999999999999545
 20
959.5999999999999091
 10
961.0
 20
959.5999999999999091
 10
961.0
 20
966.0
 10
969.0
 20
966.0
 10
969.0
 20
964.5999999999999091
 10
962.4000000000000909
 20
964.5999999999999091
 10
962.3999999999998636
 20
960.9999999999997726
 10
967.3999999999998636
 20
961.0
  0
LWPOLYLINE
  5
BF
  8
2
 62
5
420
255
370
0
  6
CONTINUOUS
100
AcDbEntity
100
AcDbPolyline
 90
29
 70
1
 10
632.3999999999998636
 20
642.9999999999997726
 10
631.0
 20
642.9999999999997726
 10
631.0
 20
644.4000000000000909
 10
632.6000000000001364
 20
646.0
 10
637.3999999999998636
 20
645.9999999999997726
 10
639.0
 20
644.3999999999998636
 10
639.0
 20
641.2499999999997726
 10
637.7000000000000455
 20
640.0
 10
639.0
 20
638.7499999999997726
 10
639.0
 20
635.5999999999999091
 10
637.3999999999998636
 20
633.9999999999997726
 10
632.5999999999999091
 20
633.9999999999997726
 10
631.0
 20
635.5999999999999091
 10
631.0
 20
637.0
 10
632.4000000000000909
 20
637.0
 10
632.4000000000000909
 20
636.1999999999998181
 10
633.2000000000000455
 20
635.3999999999998636
 10
636.7999999999999545
 20
635.3999999999998636
 10
637.5999999999999091
 20
636.1999999999998181
 10
637.6000000000001364
 20
638.0999999999999091
 10
636.4000000000000909
 20
639.2999999999999545
 10
634.6999999999998181
 20
639.2999999999999545
 10
634.6999999999998181
 20
640.7000000000000455
 10
636.4000000000000909
 20
640.7000000000000455
 10
637.6000000000001364
 20
641.8999999999998636
 10
637.5999999999999091
 20
643.7999999999999545
 10
636.7999999999999545
 20
644.5999999999999091
 10
633.2000000000000455
 20
644.5999999999999091
 10
632.4000000000000909
 20
643.7999999999999545
  0
LWPOLYLINE
  5
C0
  8
2
 62
5
420
255
370
0
  6
CONTINUOUS
100
AcDbEntity
100
AcDbPolyline
 90
8
 70
1
 10
631.5
 20
798.9999999999997726
 10
631.5
 20
797.5999999999999091
 10
633.1999999999998181
 20
797.5999999999999091
 10
633.2000000000000455
 20
799.0
 10
636.0
 20
803.4999999999997726
 10
637.4000000000000909
 20
803.4999999999997726
 10
637.4000000000000909
 20
805.9999999999997726
 10
636.0
 20
805.9999999999997726
  0
LWPOLYLINE
  5
C1
  8
2
 62
5
420
255
370
0
  6
CONTINUOUS
100
AcDbEntity
100
AcDbPolyline
 90
12
 70
1
 10
633.0
 20
799.0
 10
633.0
 20
797.5999999999999091
 10
636.0
 20
797.5999999999999091
 10
636.0
 20
794.0
 10
637.4000000000000909
 20
794.0
 10
637.4000000000000909
 20
797.5999999999999091
 10
638.5
 20
797.5999999999999091
 10
638.5
 20
798.9999999999997726
 10
637.4000000000000909
 20
799.0
 10
637.4000000000000909
 20
803.6999999999998181
 10
636.0
 20
803.6999999999998181
 10
636.0
 20
799.0
  0
LWPOLYLINE
  5
C2
  8
2
 62
5
420
255
370
0
  6
CONTINUOUS
100
AcDbEntity
100
AcDbPolyline
 90
20
 70
1
 10
639.0
 20
959.3999999999998636
 10
639.0
 20
955.5999999999999091
 10
637.3999999999998636
 20
953.9999999999997726
 10
632.5999999999999091
 20
953.9999999999997726
 10
631.0
 20
955.5999999999999091
 10
631.0
 20
957.0
 10
632.4000000000000909
 20
957.0
 10
632.4000000000000909
 20
956.1999999999998181
 10
633.2000000000000455
 20
955.3999999999998636
 10
636.7999999999999545
 20
955.3999999999998636
 10
637.5999999999999091
 20
956.1999999999998181
 10
637.5999999999999091
 20
958.7999999999999545
 10
636.7999999999999545
 20
959.5999999999999091
 10
631.0
 20
959.5999999999999091
 10
631.0
 20
966.0
 10
639.0
 20
966.0
 10
639.0
 20
964.5999999999999091
 10
632.4000000000000909
 20
964.5999999999999091
 10
632.3999999999998636
 20
960.9999999999997726
 10
637.3999999999998636
 20
961.0
  0
LWPOLYLINE
  5
C3
  8
2
 62
5
420
255
370
0
  6
CONTINUOUS
100
AcDbEntity
100
AcDbPolyline
 90
29
 70
1
 10
792.3999999999998636
 20
642.9999999999997726
 10
791.0
 20
642.9999999999997726
 10
791.0
 20
644.4000000000000909
 10
792.6000000000001364
 20
646.0
 10
797.3999999999998636
 20
645.9999999999997726
 10
799.0
 20
644.3999999999998636
 10
799.0
 20
641.2499999999997726
 10
797.7000000000000455
 20
640.0
 10
799.0
 20
638.7499999999997726
 10
799.0
 20
635.5999999999999091
 10
797.3999999999998636
 20
633.9999999999997726
 10
792.5999999999999091
 20
633.9999999999997726
 10
791.0
 20
635.5999999999999091
 10
791.0
 20
637.0
 10
792.4000000000000909
 20
637.0
 10
792.4000000000000909
 20
636.1999999999998181
 10
793.2000000000000455
 20
635.3999999999998636
 10
796.7999999999999545
 20
635.3999999999998636
 10
797.5999999999999091
 20
636.1999999999998181
 10
797.6000000000001364
 20
638.0999999999999091
 10
796.4000000000000909
 20
639.2999999999999545
 10
794.6999999999998181
 20
639.2999999999999545
 10
794.6999999999998181
 20
640.7000000000000455
 10
796.4000000000000909
 20
640.7000000000000455
 10
797.6000000000001364
 20
641.8999999999998636
 10
797.5999999999999091
 20
643.7999999999999545
 10
796.7999999999999545
 20
644.5999999999999091
 10
793.2000000000000455
 20
644.5999999999999091
 10
792.4000000000000909
 20
643.7999999999999545
  0
LWPOLYLINE
  5
C4
  8
2
 62
5
420
255
370
0
  6
CONTINUOUS
100
AcDbEntity
100
AcDbPolyline
 90
8
 70
1
 10
791.5
 20
798.9999999999997726
 10
791.5
 20
797.5999999999999091
 10
793.1999999999998181
 20
797.5999999999999091
 10
793.2000000000000455
 20
799.0
 10
796.0
 20
803.4999999999997726
 10
797.4000000000000909
 20
803.4999999999997726
 10
797.4000000000000909
 20
805.9999999999997726
 10
796.0
 20
805.9999999999997726
  0
LWPOLYLINE
  5
C5
  8
2
 62
5
420
255
370
0
  6
CONTINUOUS
100
AcDbEntity
100
AcDbPolyline
 90
12
 70
1
 10
793.0
 20
799.0
 10
793.0
 20
797.5999999999999091
 10
796.0
 20
797.5999999999999091
 10
796.0
 20
794.0
 10
797.4000000000000909
 20
794.0
 10
797.4000000000000909
 20
797.5999999999999091
 10
798.5
 20
797.5999999999999091
 10
798.5
 20
798.9999999999997726
 10
797.4000000000000909
 20
799.0
 10
797.4000000000000909
 20
803.6999999999998181
 10
796.0
 20
803.6999999999998181
 10
796.0
 20
799.0
  0
LWPOLYLINE
  5
C6
  8
2
 62
5
420
255
370
0
  6
CONTINUOUS
100
AcDbEntity
100
AcDbPolyline
 90
20
 70
1
 10
799.0
 20
959.3999999999998636
 10
799.0
 20
955.5999999999999091
 10
797.3999999999998636
 20
953.9999999999997726
 10
792.5999999999999091
 20
953.9999999999997726
 10
791.0
 20
955.5999999999999091
 10
791.0
 20
957.0
 10
792.4000000000000909
 20
957.0
 10
792.4000000000000909
 20
956.1999999999998181
 10
793.2000000000000455
 20
955.3999999999998636
 10
796.7999999999999545
 20
955.3999999999998636
 10
797.5999999999999091
 20
956.1999999999998181
 10
797.5999999999999091
 20
958.7999999999999545
 10
796.7999999999999545
 20
959.5999999999999091
 10
791.0
 20
959.5999999999999091
 10
791.0
 20
966.0
 10
799.0
 20
966.0
 10
799.0
 20
964.5999999999999091
 10
792.4000000000000909
 20
964.5999999999999091
 10
792.3999999999998636
 20
960.9999999999997726
 10
797.3999999999998636
 20
961.0
  0
LWPOLYLINE
  5
C7
  8
2
 62
5
420
255
370
0
  6
CONTINUOUS
100
AcDbEntity
100
AcDbPolyline
 90
29
 70
1
 10
952.3999999999998636
 20
642.9999999999997726
 10
951.0
 20
642.9999999999997726
 10
951.0
 20
644.4000000000000909
 10
952.6000000000001364
 20
646.0
 10
957.3999999999998636
 20
645.9999999999997726
 10
959.0
 20
644.3999999999998636
 10
959.0
 20
641.2499999999997726
 10
957.7000000000000455
 20
640.0
 10
959.0
 20
638.7499999999997726
 10
959.0
 20
635.5999999999999091
 10
957.3999999999998636
 20
633.9999999999997726
 10
952.5999999999999091
 20
633.9999999999997726
 10
951.0
 20
635.5999999999999091
 10
951.0
 20
637.0
 10
952.4000000000000909
 20
637.0
 10
952.4000000000000909
 20
636.1999999999998181
 10
953.2000000000000455
 20
635.3999999999998636
 10
956.7999999999999545
 20
635.3999999999998636
 10
957.5999999999999091
 20
636.1999999999998181
 10
957.6000000000001364
 20
638.0999999999999091
 10
956.4000000000000909
 20
639.2999999999999545
 10
954.6999999999998181
 20
639.2999999999999545
 10
954.6999999999998181
 20
640.7000000000000455
 10
956.4000000000000909
 20
640.7000000000000455
 10
957.6000000000001364
 20
641.8999999999998636
 10
957.5999999999999091
 20
643.7999999999999545
 10
956.7999999999999545
 20
644.5999999999999091
 10
953.2000000000000455
 20
644.5999999999999091
 10
952.4000000000000909
 20
643.7999999999999545
  0
LWPOLYLINE
  5
C8
  8
2
 62
5
420
255
370
0
  6
CONTINUOUS
100
AcDbEntity
100
AcDbPolyline
 90
8
 70
1
 10
951.5
 20
798.9999999999997726
 10
951.5
 20
797.5999999999999091
 10
953.1999999999998181
 20
797.5999999999999091
 10
953.2000000000000455
 20
799.0
 10
956.0
 20
803.4999999999997726
 10
957.4000000000000909
 20
803.4999999999997726
 10
957.4000000000000909
 20
805.9999999999997726
 10
956.0
 20
805.9999999999997726
  0
LWPOLYLINE
  5
C9
  8
2
 62
5
420
255
370
0
  6
CONTINUOUS
100
AcDbEntity
100
AcDbPolyline
 90
12
 70
1
 10
953.0
 20
799.0
 10
953.0
 20
797.5999999999999091
 10
956.0
 20
797.5999999999999091
 10
956.0
 20
794.0
 10
957.4000000000000909
 20
794.0
 10
957.4000000000000909
 20
797.5999999999999091
 10
958.5
 20
797.5999999999999091
 10
958.5
 20
798.9999999999997726
 10
957.4000000000000909
 20
799.0
 10
957.4000000000000909
 20
803.6999999999998181
 10
956.0
 20
803.6999999999998181
 10
956.0
 20
799.0
  0
LWPOLYLINE
  5
CA
  8
2
 62
5
420
255
370
0
  6
CONTINUOUS
100
AcDbEntity
100
AcDbPolyline
 90
20
 70
1
 10
959.0
 20
959.3999999999998636
 10
959.0
 20
955.5999999999999091
 10
957.3999999999998636
 20
953.9999999999997726
 10
952.5999999999999091
 20
953.9999999999997726
 10
951.0
 20
955.5999999999999091
 10
951.0
 20
957.0
 10
952.4000000000000909
 20
957.0
 10
952.4000000000000909
 20
956.1999999999998181
 10
953.2000000000000455
 20
955.3999999999998636
 10
956.7999999999999545
 20
955.3999999999998636
 10
957.5999999999999091
 20
956.1999999999998181
 10
957.5999999999999091
 20
958.7999999999999545
 10
956.7999999999999545
 20
959.5999999999999091
 10
951.0
 20
959.5999999999999091
 10
951.0
 20
966.0
 10
959.0
 20
966.0
 10
959.0
 20
964.5999999999999091
 10
952.4000000000000909
 20
964.5999999999999091
 10
952.3999999999998636
 20
960.9999999999997726
 10
957.3999999999998636
 20
961.0
  0
LWPOLYLINE
  5
CB
  8
2
 62
5
420
255
370
0
  6
CONTINUOUS
100
AcDbEntity
100
AcDbPolyline
 90
12
 70
1
 10
559.0
 20
564.0
 10
559.0
 20
561.0
 10
556.0
 20
561.0
 10
556.0
 20
559.0
 10
559.0
 20
559.0
 10
559.0
 20
556.0
 10
561.0
 20
556.0
 10
561.0
 20
559.0
 10
564.0
 20
559.0
 10
564.0
 20
561.0
 10
561.0
 20
561.0
 10
561.0
 20
564.0
  0
LWPOLYLINE
  5
CC
  8
2
 62
5
420
255
370
0
  6
CONTINUOUS
100
AcDbEntity
100
AcDbPolyline
 90
12
 70
1
 10
639.0
 20
564.0
 10
639.0
 20
561.0
 10
636.0
 20
561.0
 10
636.0
 20
559.0
 10
639.0
 20
559.0
 10
639.0
 20
556.0
 10
641.0
 20
556.0
 10
641.0
 20
559.0
 10
644.0
 20
559.0
 10
644.0
 20
561.0
 10
641.0
 20
561.0
 10
641.0
 20
564.0
  0
LWPOLYLINE
  5
CD
  8
2
 62
5
420
255
370
0
  6
CONTINUOUS
100
AcDbEntity
100
AcDbPolyline
 90
12
 70
1
 10
719.0
 20
564.0
 10
719.0
 20
561.0
 10
716.0
 20
561.0
 10
716.0
 20
559.0
 10
719.0
 20
559.0
 10
719.0
 20
556.0
 10
721.0
 20
556.0
 10
721.0
 20
559.0
 10
724.0
 20
559.0
 10
724.0
 20
561.0
 10
721.0
 20
561.0
 10
721.0
 20
564.0
  0
LWPOLYLINE
  5
CE
  8
2
 62
5
420
255
370
0
  6
CONTINUOUS
100
AcDbEntity
100
AcDbPolyline
 90
12
 70
1
 10
799.0
 20
564.0
 10
799.0
 20
561.0
 10
796.0
 20
561.0
 10
796.0
 20
559.0
 10
799.0
 20
559.0
 10
799.0
 20
556.0
 10
801.0
 20
556.0
 10
801.0
 20
559.0
 10
804.0
 20
559.0
 10
804.0
 20
561.0
 10
801.0
 20
561.0
 10
801.0
 20
564.0
  0
LWPOLYLINE
  5
CF
  8
2
 62
5
420
255
370
0
  6
CONTINUOUS
100
AcDbEntity
100
AcDbPolyline
 90
12
 70
1
 10
879.0
 20
564.0
 10
879.0
 20
561.0
 10
876.0
 20
561.0
 10
876.0
 20
559.0
 10
879.0
 20
559.0
 10
879.0
 20
556.0
 10
881.0
 20
556.0
 10
881.0
 20
559.0
 10
884.0
 20
559.0
 10
884.0
 20
561.0
 10
881.0
 20
561.0
 10
881.0
 20
564.0
  0
LWPOLYLINE
  5
D0
  8
2
 62
5
420
255
370
0
  6
CONTINUOUS
100
AcDbEntity
100
AcDbPolyline
 90
12
 70
1
 10
959.0
 20
564.0
 10
959.0
 20
561.0
 10
956.0
 20
561.0
 10
956.0
 20
559.0
 10
959.0
 20
559.0
 10
959.0
 20
556.0
 10
961.0
 20
556.0
 10
961.0
 20
559.0
 10
964.0
 20
559.0
 10
964.0
 20
561.0
 10
961.0
 20
561.0
 10
961.0
 20
564.0
  0
LWPOLYLINE
  5
D1
  8
2
 62
5
420
255
370
0
  6
CONTINUOUS
100
AcDbEntity
100
AcDbPolyline
 90
12
 70
1
 10
1039.0
 20
564.0
 10
1039.0
 20
561.0
 10
1036.0
 20
561.0
 10
1036.0
 20
559.0
 10
1039.0
 20
559.0
 10
1039.0
 20
556.0
 10
1041.0
 20
556.0
 10
1041.0
 20
559.0
 10
1044.0
 20
559.0
 10
1044.0
 20
561.0
 10
1041.0
 20
561.0
 10
1041.0
 20
564.0
  0
LWPOLYLINE
  5
D2
  8
2
 62
5
420
255
370
0
  6
CONTINUOUS
100
AcDbEntity
100
AcDbPolyline
 90
12
 70
1
 10
559.0
 20
644.0
 10
559.0
 20
641.0
 10
556.0
 20
641.0
 10
556.0
 20
639.0
 10
559.0
 20
639.0
 10
559.0
 20
636.0
 10
561.0
 20
636.0
 10
561.0
 20
639.0
 10
564.0
 20
639.0
 10
564.0
 20
641.0
 10
561.0
 20
641.0
 10
561.0
 20
644.0
  0
LWPOLYLINE
  5
D3
  8
2
 62
5
420
255
370
0
  6
CONTINUOUS
100
AcDbEntity
100
AcDbPolyline
 90
12
 70
1
 10
719.0
 20
644.0
 10
719.0
 20
641.0
 10
716.0
 20
641.0
 10
716.0
 20
639.0
 10
719.0
 20
639.0
 10
719.0
 20
636.0
 10
721.0
 20
636.0
 10
721.0
 20
639.0
 10
724.0
 20
639.0
 10
724.0
 20
641.0
 10
721.0
 20
641.0
 10
721.0
 20
644.0
  0
LWPOLYLINE
  5
D4
  8
2
 62
5
420
255
370
0
  6
CONTINUOUS
100
AcDbEntity
100
AcDbPolyline
 90
12
 70
1
 10
879.0
 20
644.0
 10
879.0
 20
641.0
 10
876.0
 20
641.0
 10
876.0
 20
639.0
 10
879.0
 20
639.0
 10
879.0
 20
636.0
 10
881.0
 20
636.0
 10
881.0
 20
639.0
 10
884.0
 20
639.0
 10
884.0
 20
641.0
 10
881.0
 20
641.0
 10
881.0
 20
644.0
  0
LWPOLYLINE
  5
D5
  8
2
 62
5
420
255
370
0
  6
CONTINUOUS
100
AcDbEntity
100
AcDbPolyline
 90
12
 70
1
 10
1039.0
 20
644.0
 10
1039.0
 20
641.0
 10
1036.0
 20
641.0
 10
1036.0
 20
639.0
 10
1039.0
 20
639.0
 10
1039.0
 20
636.0
 10
1041.0
 20
636.0
 10
1041.0
 20
639.0
 10
1044.0
 20
639.0
 10
1044.0
 20
641.0
 10
1041.0
 20
641.0
 10
1041.0
 20
644.0
  0
LWPOLYLINE
  5
D6
  8
2
 62
5
420
255
370
0
  6
CONTINUOUS
100
AcDbEntity
100
AcDbPolyline
 90
12
 70
1
 10
559.0
 20
724.0
 10
559.0
 20
721.0
 10
556.0
 20
721.0
 10
556.0
 20
719.0
 10
559.0
 20
719.0
 10
559.0
 20
716.0
 10
561.0
 20
716.0
 10
561.0
 20
719.0
 10
564.0
 20
719.0
 10
564.0
 20
721.0
 10
561.0
 20
721.0
 10
561.0
 20
724.0
  0
LWPOLYLINE
  5
D7
  8
2
 62
5
420
255
370
0
  6
CONTINUOUS
100
AcDbEntity
100
AcDbPolyline
 90
12
 70
1
 10
719.0
 20
724.0
 10
719.0
 20
721.0
 10
716.0
 20
721.0
 10
716.0
 20
719.0
 10
719.0
 20
719.0
 10
719.0
 20
716.0
 10
721.0
 20
716.0
 10
721.0
 20
719.0
 10
724.0
 20
719.0
 10
724.0
 20
721.0
 10
721.0
 20
721.0
 10
721.0
 20
724.0
  0
LWPOLYLINE
  5
D8
  8
2
 62
5
420
255
370
0
  6
CONTINUOUS
100
AcDbEntity
100
AcDbPolyline
 90
12
 70
1
 10
879.0
 20
724.0
 10
879.0
 20
721.0
 10
876.0
 20
721.0
 10
876.0
 20
719.0
 10
879.0
 20
719.0
 10
879.0
 20
716.0
 10
881.0
 20
716.0
 10
881.0
 20
719.0
 10
884.0
 20
719.0
 10
884.0
 20
721.0
 10
881.0
 20
721.0
 10
881.0
 20
724.0
  0
LWPOLYLINE
  5
D9
  8
2
 62
5
420
255
370
0
  6
CONTINUOUS
100
AcDbEntity
100
AcDbPolyline
 90
12
 70
1
 10
1039.0
 20
724.0
 10
1039.0
 20
721.0
 10
1036.0
 20
721.0
 10
1036.0
 20
719.0
 10
1039.0
 20
719.0
 10
1039.0
 20
716.0
 10
1041.0
 20
716.0
 10
1041.0
 20
719.0
 10
1044.0
 20
719.0
 10
1044.0
 20
721.0
 10
1041.0
 20
721.0
 10
1041.0
 20
724.0
  0
LWPOLYLINE
  5
DA
  8
2
 62
5
420
255
370
0
  6
CONTINUOUS
100
AcDbEntity
100
AcDbPolyline
 90
12
 70
1
 10
559.0
 20
804.0
 10
559.0
 20
801.0
 10
556.0
 20
801.0
 10
556.0
 20
799.0
 10
559.0
 20
799.0
 10
559.0
 20
796.0
 10
561.0
 20
796.0
 10
561.0
 20
799.0
 10
564.0
 20
799.0
 10
564.0
 20
801.0
 10
561.0
 20
801.0
 10
561.0
 20
804.0
  0
LWPOLYLINE
  5
DB
  8
2
 62
5
420
255
370
0
  6
CONTINUOUS
100
AcDbEntity
100
AcDbPolyline
 90
12
 70
1
 10
719.0
 20
804.0
 10
719.0
 20
801.0
 10
716.0
 20
801.0
 10
716.0
 20
799.0
 10
719.0
 20
799.0
 10
719.0
 20
796.0
 10
721.0
 20
796.0
 10
721.0
 20
799.0
 10
724.0
 20
799.0
 10
724.0
 20
801.0
 10
721.0
 20
801.0
 10
721.0
 20
804.0
  0
LWPOLYLINE
  5
DC
  8
2
 62
5
420
255
370
0
  6
CONTINUOUS
100
AcDbEntity
100
AcDbPolyline
 90
12
 70
1
 10
879.0
 20
804.0
 10
879.0
 20
801.0
 10
876.0
 20
801.0
 10
876.0
 20
799.0
 10
879.0
 20
799.0
 10
879.0
 20
796.0
 10
881.0
 20
796.0
 10
881.0
 20
799.0
 10
884.0
 20
799.0
 10
884.0
 20
801.0
 10
881.0
 20
801.0
 10
881.0
 20
804.0
  0
LWPOLYLINE
  5
DD
  8
2
 62
5
420
255
370
0
  6
CONTINUOUS
100
AcDbEntity
100
AcDbPolyline
 90
12
 70
1
 10
1039.0
 20
804.0
 10
1039.0
 20
801.0
 10
1036.0
 20
801.0
 10
1036.0
 20
799.0
 10
1039.0
 20
799.0
 10
1039.0
 20
796.0
 10
1041.0
 20
796.0
 10
1041.0
 20
799.0
 10
1044.0
 20
799.0
 10
1044.0
 20
801.0
 10
1041.0
 20
801.0
 10
1041.0
 20
804.0
  0
LWPOLYLINE
  5
DE
  8
2
 62
5
420
255
370
0
  6
CONTINUOUS
100
AcDbEntity
100
AcDbPolyline
 90
12
 70
1
 10
559.0
 20
884.0
 10
559.0
 20
881.0
 10
556.0
 20
881.0
 10
556.0
 20
879.0
 10
559.0
 20
879.0
 10
559.0
 20
876.0
 10
561.0
 20
876.0
 10
561.0
 20
879.0
 10
564.0
 20
879.0
 10
564.0
 20
881.0
 10
561.0
 20
881.0
 10
561.0
 20
884.0
  0
LWPOLYLINE
  5
DF
  8
2
 62
5
420
255
370
0
  6
CONTINUOUS
100
AcDbEntity
100
AcDbPolyline
 90
12
 70
1
 10
719.0
 20
884.0
 10
719.0
 20
881.0
 10
716.0
 20
881.0
 10
716.0
 20
879.0
 10
719.0
 20
879.0
 10
719.0
 20
876.0
 10
721.0
 20
876.0
 10
721.0
 20
879.0
 10
724.0
 20
879.0
 10
724.0
 20
881.0
 10
721.0
 20
881.0
 10
721.0
 20
884.0
  0
LWPOLYLINE
  5
E0
  8
2
 62
5
420
255
370
0
  6
CONTINUOUS
100
AcDbEntity
100
AcDbPolyline
 90
12
 70
1
 10
879.0
 20
884.0
 10
879.0
 20
881.0
 10
876.0
 20
881.0
 10
876.0
 20
879.0
 10
879.0
 20
879.0
 10
879.0
 20
876.0
 10
881.0
 20
876.0
 10
881.0
 20
879.0
 10
884.0
 20
879.0
 10
884.0
 20
881.0
 10
881.0
 20
881.0
 10
881.0
 20
884.0
  0
LWPOLYLINE
  5
E1
  8
2
 62
5
420
255
370
0
  6
CONTINUOUS
100
AcDbEntity
100
AcDbPolyline
 90
12
 70
1
 10
1039.0
 20
884.0
 10
1039.0
 20
881.0
 10
1036.0
 20
881.0
 10
1036.0
 20
879.0
 10
1039.0
 20
879.0
 10
1039.0
 20
876.0
 10
1041.0
 20
876.0
 10
1041.0
 20
879.0
 10
1044.0
 20
879.0
 10
1044.0
 20
881.0
 10
1041.0
 20
881.0
 10
1041.0
 20
884.0
  0
LWPOLYLINE
  5
E2
  8
2
 62
5
420
255
370
0
  6
CONTINUOUS
100
AcDbEntity
100
AcDbPolyline
 90
12
 70
1
 10
559.0
 20
964.0
 10
559.0
 20
961.0
 10
556.0
 20
961.0
 10
556.0
 20
959.0
 10
559.0
 20
959.0
 10
559.0
 20
956.0
 10
561.0
 20
956.0
 10
561.0
 20
959.0
 10
564.0
 20
959.0
 10
564.0
 20
961.0
 10
561.0
 20
961.0
 10
561.0
 20
964.0
  0
LWPOLYLINE
  5
E3
  8
2
 62
5
420
255
370
0
  6
CONTINUOUS
100
AcDbEntity
100
AcDbPolyline
 90
12
 70
1
 10
719.0
 20
964.0
 10
719.0
 20
961.0
 10
716.0
 20
961.0
 10
716.0
 20
959.0
 10
719.0
 20
959.0
 10
719.0
 20
956.0
 10
721.0
 20
956.0
 10
721.0
 20
959.0
 10
724.0
 20
959.0
 10
724.0
 20
961.0
 10
721.0
 20
961.0
 10
721.0
 20
964.0
  0
LWPOLYLINE
  5
E4
  8
2
 62
5
420
255
370
0
  6
CONTINUOUS
100
AcDbEntity
100
AcDbPolyline
 90
12
 70
1
 10
879.0
 20
964.0
 10
879.0
 20
961.0
 10
876.0
 20
961.0
 10
876.0
 20
959.0
 10
879.0
 20
959.0
 10
879.0
 20
956.0
 10
881.0
 20
956.0
 10
881.0
 20
959.0
 10
884.0
 20
959.0
 10
884.0
 20
961.0
 10
881.0
 20
961.0
 10
881.0
 20
964.0
  0
LWPOLYLINE
  5
E5
  8
2
 62
5
420
255
370
0
  6
CONTINUOUS
100
AcDbEntity
100
AcDbPolyline
 90
12
 70
1
 10
1039.0
 20
964.0
 10
1039.0
 20
961.0
 10
1036.0
 20
961.0
 10
1036.0
 20
959.0
 10
1039.0
 20
959.0
 10
1039.0
 20
956.0
 10
1041.0
 20
956.0
 10
1041.0
 20
959.0
 10
1044.0
 20
959.0
 10
1044.0
 20
961.0
 10
1041.0
 20
961.0
 10
1041.0
 20
964.0
  0
LWPOLYLINE
  5
E6
  8
2
 62
5
420
255
370
0
  6
CONTINUOUS
100
AcDbEntity
100
AcDbPolyline
 90
12
 70
1
 10
559.0
 20
1044.0
 10
559.0
 20
1041.0
 10
556.0
 20
1041.0
 10
556.0
 20
1039.0
 10
559.0
 20
1039.0
 10
559.0
 20
1036.0
 10
561.0
 20
1036.0
 10
561.0
 20
1039.0
 10
564.0
 20
1039.0
 10
564.0
 20
1041.0
 10
561.0
 20
1041.0
 10
561.0
 20
1044.0
  0
LWPOLYLINE
  5
E7
  8
2
 62
5
420
255
370
0
  6
CONTINUOUS
100
AcDbEntity
100
AcDbPolyline
 90
12
 70
1
 10
639.0
 20
1044.0
 10
639.0
 20
1041.0
 10
636.0
 20
1041.0
 10
636.0
 20
1039.0
 10
639.0
 20
1039.0
 10
639.0
 20
1036.0
 10
641.0
 20
1036.0
 10
641.0
 20
1039.0
 10
644.0
 20
1039.0
 10
644.0
 20
1041.0
 10
641.0
 20
1041.0
 10
641.0
 20
1044.0
  0
LWPOLYLINE
  5
E8
  8
2
 62
5
420
255
370
0
  6
CONTINUOUS
100
AcDbEntity
100
AcDbPolyline
 90
12
 70
1
 10
719.0
 20
1044.0
 10
719.0
 20
1041.0
 10
716.0
 20
1041.0
 10
716.0
 20
1039.0
 10
719.0
 20
1039.0
 10
719.0
 20
1036.0
 10
721.0
 20
1036.0
 10
721.0
 20
1039.0
 10
724.0
 20
1039.0
 10
724.0
 20
1041.0
 10
721.0
 20
1041.0
 10
721.0
 20
1044.0
  0
LWPOLYLINE
  5
E9
  8
2
 62
5
420
255
370
0
  6
CONTINUOUS
100
AcDbEntity
100
AcDbPolyline
 90
12
 70
1
 10
799.0
 20
1044.0
 10
799.0
 20
1041.0
 10
796.0
 20
1041.0
 10
796.0
 20
1039.0
 10
799.0
 20
1039.0
 10
799.0
 20
1036.0
 10
801.0
 20
1036.0
 10
801.0
 20
1039.0
 10
804.0
 20
1039.0
 10
804.0
 20
1041.0
 10
801.0
 20
1041.0
 10
801.0
 20
1044.0
  0
LWPOLYLINE
  5
EA
  8
2
 62
5
420
255
370
0
  6
CONTINUOUS
100
AcDbEntity
100
AcDbPolyline
 90
12
 70
1
 10
879.0
 20
1044.0
 10
879.0
 20
1041.0
 10
876.0
 20
1041.0
 10
876.0
 20
1039.0
 10
879.0
 20
1039.0
 10
879.0
 20
1036.0
 10
881.0
 20
1036.0
 10
881.0
 20
1039.0
 10
884.0
 20
1039.0
 10
884.0
 20
1041.0
 10
881.0
 20
1041.0
 10
881.0
 20
1044.0
  0
LWPOLYLINE
  5
EB
  8
2
 62
5
420
255
370
0
  6
CONTINUOUS
100
AcDbEntity
100
AcDbPolyline
 90
12
 70
1
 10
959.0
 20
1044.0
 10
959.0
 20
1041.0
 10
956.0
 20
1041.0
 10
956.0
 20
1039.0
 10
959.0
 20
1039.0
 10
959.0
 20
1036.0
 10
961.0
 20
1036.0
 10
961.0
 20
1039.0
 10
964.0
 20
1039.0
 10
964.0
 20
1041.0
 10
961.0
 20
1041.0
 10
961.0
 20
1044.0
  0
LWPOLYLINE
  5
EC
  8
2
 62
5
420
255
370
0
  6
CONTINUOUS
100
AcDbEntity
100
AcDbPolyline
 90
12
 70
1
 10
1039.0
 20
1044.0
 10
1039.0
 20
1041.0
 10
1036.0
 20
1041.0
 10
1036.0
 20
1039.0
 10
1039.0
 20
1039.0
 10
1039.0
 20
1036.0
 10
1041.0
 20
1036.0
 10
1041.0
 20
1039.0
 10
1044.0
 20
1039.0
 10
1044.0
 20
1041.0
 10
1041.0
 20
1041.0
 10
1041.0
 20
1044.0
  0
LWPOLYLINE
  5
ED
  8
2
 62
5
420
255
370
0
  6
CONTINUOUS
100
AcDbEntity
100
AcDbPolyline
 90
12
 70
1
 10
639.0
 20
724.0
 10
639.0
 20
721.0
 10
636.0
 20
721.0
 10
636.0
 20
719.0
 10
639.0
 20
719.0
 10
639.0
 20
716.0
 10
641.0
 20
716.0
 10
641.0
 20
719.0
 10
644.0
 20
719.0
 10
644.0
 20
721.0
 10
641.0
 20
721.0
 10
641.0
 20
724.0
  0
LWPOLYLINE
  5
EE
  8
2
 62
5
420
255
370
0
  6
CONTINUOUS
100
AcDbEntity
100
AcDbPolyline
 90
12
 70
1
 10
799.0
 20
724.0
 10
799.0
 20
721.0
 10
796.0
 20
721.0
 10
796.0
 20
719.0
 10
799.0
 20
719.0
 10
799.0
 20
716.0
 10
801.0
 20
716.0
 10
801.0
 20
719.0
 10
804.0
 20
719.0
 10
804.0
 20
721.0
 10
801.0
 20
721.0
 10
801.0
 20
724.0
  0
LWPOLYLINE
  5
EF
  8
2
 62
5
420
255
370
0
  6
CONTINUOUS
100
AcDbEntity
100
AcDbPolyline
 90
12
 70
1
 10
959.0
 20
724.0
 10
959.0
 20
721.0
 10
956.0
 20
721.0
 10
956.0
 20
719.0
 10
959.0
 20
719.0
 10
959.0
 20
716.0
 10
961.0
 20
716.0
 10
961.0
 20
719.0
 10
964.0
 20
719.0
 10
964.0
 20
721.0
 10
961.0
 20
721.0
 10
961.0
 20
724.0
  0
LWPOLYLINE
  5
F0
  8
2
 62
5
420
255
370
0
  6
CONTINUOUS
100
AcDbEntity
100
AcDbPolyline
 90
12
 70
1
 10
639.0
 20
884.0
 10
639.0
 20
881.0
 10
636.0
 20
881.0
 10
636.0
 20
879.0
 10
639.0
 20
879.0
 10
639.0
 20
876.0
 10
641.0
 20
876.0
 10
641.0
 20
879.0
 10
644.0
 20
879.0
 10
644.0
 20
881.0
 10
641.0
 20
881.0
 10
641.0
 20
884.0
  0
LWPOLYLINE
  5
F1
  8
2
 62
5
420
255
370
0
  6
CONTINUOUS
100
AcDbEntity
100
AcDbPolyline
 90
12
 70
1
 10
799.0
 20
884.0
 10
799.0
 20
881.0
 10
796.0
 20
881.0
 10
796.0
 20
879.0
 10
799.0
 20
879.0
 10
799.0
 20
876.0
 10
801.0
 20
876.0
 10
801.0
 20
879.0
 10
804.0
 20
879.0
 10
804.0
 20
881.0
 10
801.0
 20
881.0
 10
801.0
 20
884.0
  0
LWPOLYLINE
  5
F2
  8
2
 62
5
420
255
370
0
  6
CONTINUOUS
100
AcDbEntity
100
AcDbPolyline
 90
12
 70
1
 10
959.0
 20
884.0
 10
959.0
 20
881.0
 10
956.0
 20
881.0
 10
956.0
 20
879.0
 10
959.0
 20
879.0
 10
959.0
 20
876.0
 10
961.0
 20
876.0
 10
961.0
 20
879.0
 10
964.0
 20
879.0
 10
964.0
 20
881.0
 10
961.0
 20
881.0
 10
961.0
 20
884.0
  0
LWPOLYLINE
  5
F3
  8
3
 62
5
420
255
370
0
  6
CONTINUOUS
100
AcDbEntity
100
AcDbPolyline
 90
12
 70
1
 10
164.9000000000000909
 20
646.0
 10
164.9000000000000909
 20
644.5999999999999091
 10
165.2999999999999545
 20
644.5999999999999091
 10
167.0999999999999091
 20
642.7999999999999545
 10
167.0999999999999091
 20
636.6999999999998181
 10
165.7999999999999545
 20
635.3999999999998636
 10
164.8999999999998636
 20
635.4000000000000909
 10
164.8999999999998636
 20
633.9999999999997726
 10
166.2999999999999545
 20
634.0
 10
168.5
 20
636.2000000000000455
 10
168.5
 20
643.3999999999998636
 10
165.8999999999998636
 20
646.0
  0
LWPOLYLINE
  5
F4
  8
3
 62
5
420
255
370
0
  6
CONTINUOUS
100
AcDbEntity
100
AcDbPolyline
 90
12
 70
1
 10
165.0999999999999091
 20
646.0
 10
165.0999999999999091
 20
644.5999999999999091
 10
164.7000000000000455
 20
644.5999999999999091
 10
162.9000000000000909
 20
642.7999999999999545
 10
162.9000000000000909
 20
636.6999999999998181
 10
164.2000000000000455
 20
635.3999999999998636
 10
165.1000000000001364
 20
635.4000000000000909
 10
165.1000000000001364
 20
633.9999999999997726
 10
163.7000000000000455
 20
634.0
 10
161.5
 20
636.2000000000000455
 10
161.5
 20
643.3999999999998636
 10
164.1000000000001364
 20
646.0
  0
LWPOLYLINE
  5
F5
  8
3
 62
5
420
255
370
-1
  6
ByLayer
100
AcDbEntity
100
AcDbPolyline
 90
11
 70
1
 10
327.2000000000000455
 20
633.9999999999997726
 10
327.2000000000000455
 20
635.3999999999998636
 10
325.6999999999998181
 20
635.4000000000000909
 10
325.6999999999998181
 20
645.9999999999997726
 10
324.7000000000000455
 20
645.9999999999997726
 10
323.2000000000000455
 20
644.5
 10
323.2000000000000455
 20
643.7000000000000455
 10
324.3000000000001819
 20
643.7000000000000455
 10
324.2999999999999545
 20
635.3999999999998636
 10
322.7999999999999545
 20
635.3999999999998636
 10
322.7999999999999545
 20
633.9999999999997726
  0
LWPOLYLINE
  5
F6
  8
3
 62
5
420
255
370
0
  6
CONTINUOUS
100
AcDbEntity
100
AcDbPolyline
 90
16
 70
1
 10
488.5
 20
633.9999999999997726
 10
481.5
 20
633.9999999999997726
 10
481.5
 20
635.5999999999999091
 10
487.0999999999999091
 20
642.2999999999999545
 10
487.0999999999999091
 20
643.2000000000000455
 10
485.7000000000000455
 20
644.5999999999999091
 10
484.2999999999999545
 20
644.5999999999999091
 10
482.8999999999998636
 20
643.1999999999998181
 10
481.5
 20
643.1999999999998181
 10
481.5
 20
643.7999999999999545
 10
483.7000000000000455
 20
646.0
 10
486.2999999999999545
 20
646.0
 10
488.5
 20
643.7999999999999545
 10
488.5
 20
641.5999999999999091
 10
483.5
 20
635.3999999999998636
 10
488.5
 20
635.3999999999998636
  0
LWPOLYLINE
  5
F7
  8
3
 62
5
420
255
370
0
  6
CONTINUOUS
100
AcDbEntity
100
AcDbPolyline
 90
12
 70
1
 10
164.9000000000000909
 20
806.0
 10
164.9000000000000909
 20
804.5999999999999091
 10
165.2999999999999545
 20
804.5999999999999091
 10
167.0999999999999091
 20
802.7999999999999545
 10
167.0999999999999091
 20
796.6999999999998181
 10
165.7999999999999545
 20
795.3999999999998636
 10
164.8999999999998636
 20
795.4000000000000909
 10
164.8999999999998636
 20
793.9999999999997726
 10
166.2999999999999545
 20
794.0
 10
168.5
 20
796.2000000000000455
 10
168.5
 20
803.3999999999998636
 10
165.8999999999998636
 20
806.0
  0
LWPOLYLINE
  5
F8
  8
3
 62
5
420
255
370
0
  6
CONTINUOUS
100
AcDbEntity
100
AcDbPolyline
 90
12
 70
1
 10
165.0999999999999091
 20
806.0
 10
165.0999999999999091
 20
804.5999999999999091
 10
164.7000000000000455
 20
804.5999999999999091
 10
162.9000000000000909
 20
802.7999999999999545
 10
162.9000000000000909
 20
796.6999999999998181
 10
164.2000000000000455
 20
795.3999999999998636
 10
165.1000000000001364
 20
795.4000000000000909
 10
165.1000000000001364
 20
793.9999999999997726
 10
163.7000000000000455
 20
794.0
 10
161.5
 20
796.2000000000000455
 10
161.5
 20
803.3999999999998636
 10
164.1000000000001364
 20
806.0
  0
LWPOLYLINE
  5
F9
  8
3
 62
5
420
255
370
-1
  6
ByLayer
100
AcDbEntity
100
AcDbPolyline
 90
11
 70
1
 10
327.2000000000000455
 20
793.9999999999997726
 10
327.2000000000000455
 20
795.3999999999998636
 10
325.6999999999998181
 20
795.4000000000000909
 10
325.6999999999998181
 20
805.9999999999997726
 10
324.7000000000000455
 20
805.9999999999997726
 10
323.2000000000000455
 20
804.5
 10
323.2000000000000455
 20
803.7000000000000455
 10
324.3000000000001819
 20
803.7000000000000455
 10
324.2999999999999545
 20
795.3999999999998636
 10
322.7999999999999545
 20
795.3999999999998636
 10
322.7999999999999545
 20
793.9999999999997726
  0
LWPOLYLINE
  5
FA
  8
3
 62
5
420
255
370
0
  6
CONTINUOUS
100
AcDbEntity
100
AcDbPolyline
 90
16
 70
1
 10
488.5
 20
793.9999999999997726
 10
481.5
 20
793.9999999999997726
 10
481.5
 20
795.5999999999999091
 10
487.0999999999999091
 20
802.2999999999999545
 10
487.0999999999999091
 20
803.2000000000000455
 10
485.7000000000000455
 20
804.5999999999999091
 10
484.2999999999999545
 20
804.5999999999999091
 10
482.8999999999998636
 20
803.1999999999998181
 10
481.5
 20
803.1999999999998181
 10
481.5
 20
803.7999999999999545
 10
483.7000000000000455
 20
806.0
 10
486.2999999999999545
 20
806.0
 10
488.5
 20
803.7999999999999545
 10
488.5
 20
801.5999999999999091
 10
483.5
 20
795.3999999999998636
 10
488.5
 20
795.3999999999998636
  0
LWPOLYLINE
  5
FB
  8
3
 62
5
420
255
370
0
  6
CONTINUOUS
100
AcDbEntity
100
AcDbPolyline
 90
12
 70
1
 10
164.9000000000000909
 20
966.0
 10
164.9000000000000909
 20
964.5999999999999091
 10
165.2999999999999545
 20
964.5999999999999091
 10
167.0999999999999091
 20
962.7999999999999545
 10
167.0999999999999091
 20
956.6999999999998181
 10
165.7999999999999545
 20
955.3999999999998636
 10
164.8999999999998636
 20
955.4000000000000909
 10
164.8999999999998636
 20
953.9999999999997726
 10
166.2999999999999545
 20
954.0
 10
168.5
 20
956.2000000000000455
 10
168.5
 20
963.3999999999998636
 10
165.8999999999998636
 20
966.0
  0
LWPOLYLINE
  5
FC
  8
3
 62
5
420
255
370
0
  6
CONTINUOUS
100
AcDbEntity
100
AcDbPolyline
 90
12
 70
1
 10
165.0999999999999091
 20
966.0
 10
165.0999999999999091
 20
964.5999999999999091
 10
164.7000000000000455
 20
964.5999999999999091
 10
162.9000000000000909
 20
962.7999999999999545
 10
162.9000000000000909
 20
956.6999999999998181
 10
164.2000000000000455
 20
955.3999999999998636
 10
165.1000000000001364
 20
955.4000000000000909
 10
165.1000000000001364
 20
953.9999999999997726
 10
163.7000000000000455
 20
954.0
 10
161.5
 20
956.2000000000000455
 10
161.5
 20
963.3999999999998636
 10
164.1000000000001364
 20
966.0
  0
LWPOLYLINE
  5
FD
  8
3
 62
5
420
255
370
-1
  6
ByLayer
100
AcDbEntity
100
AcDbPolyline
 90
11
 70
1
 10
327.2000000000000455
 20
953.9999999999997726
 10
327.2000000000000455
 20
955.3999999999998636
 10
325.6999999999998181
 20
955.4000000000000909
 10
325.6999999999998181
 20
965.9999999999997726
 10
324.7000000000000455
 20
965.9999999999997726
 10
323.2000000000000455
 20
964.5
 10
323.2000000000000455
 20
963.7000000000000455
 10
324.3000000000001819
 20
963.7000000000000455
 10
324.2999999999999545
 20
955.3999999999998636
 10
322.7999999999999545
 20
955.3999999999998636
 10
322.7999999999999545
 20
953.9999999999997726
  0
LWPOLYLINE
  5
FE
  8
3
 62
5
420
255
370
0
  6
CONTINUOUS
100
AcDbEntity
100
AcDbPolyline
 90
16
 70
1
 10
488.5
 20
953.9999999999997726
 10
481.5
 20
953.9999999999997726
 10
481.5
 20
955.5999999999999091
 10
487.0999999999999091
 20
962.2999999999999545
 10
487.0999999999999091
 20
963.2000000000000455
 10
485.7000000000000455
 20
964.5999999999999091
 10
484.2999999999999545
 20
964.5999999999999091
 10
482.8999999999998636
 20
963.1999999999998181
 10
481.5
 20
963.1999999999998181
 10
481.5
 20
963.7999999999999545
 10
483.7000000000000455
 20
966.0
 10
486.2999999999999545
 20
966.0
 10
488.5
 20
963.7999999999999545
 10
488.5
 20
961.5999999999999091
 10
483.5
 20
955.3999999999998636
 10
488.5
 20
955.3999999999998636
  0
LWPOLYLINE
  5
FF
  8
3
 62
5
420
255
370
0
  6
CONTINUOUS
100
AcDbEntity
100
AcDbPolyline
 90
29
 70
1
 10
152.3999999999998636
 20
642.9999999999997726
 10
151.0
 20
642.9999999999997726
 10
151.0
 20
644.4000000000000909
 10
152.6000000000001364
 20
646.0
 10
157.3999999999998636
 20
645.9999999999997726
 10
159.0
 20
644.3999999999998636
 10
159.0
 20
641.2499999999997726
 10
157.7000000000000455
 20
640.0
 10
159.0
 20
638.7499999999997726
 10
159.0
 20
635.5999999999999091
 10
157.3999999999998636
 20
633.9999999999997726
 10
152.5999999999999091
 20
633.9999999999997726
 10
151.0
 20
635.5999999999999091
 10
151.0
 20
637.0
 10
152.4000000000000909
 20
637.0
 10
152.4000000000000909
 20
636.1999999999998181
 10
153.2000000000000455
 20
635.3999999999998636
 10
156.7999999999999545
 20
635.3999999999998636
 10
157.5999999999999091
 20
636.1999999999998181
 10
157.6000000000001364
 20
638.0999999999999091
 10
156.4000000000000909
 20
639.2999999999999545
 10
154.6999999999998181
 20
639.2999999999999545
 10
154.6999999999998181
 20
640.7000000000000455
 10
156.4000000000000909
 20
640.7000000000000455
 10
157.6000000000001364
 20
641.8999999999998636
 10
157.5999999999999091
 20
643.7999999999999545
 10
156.7999999999999545
 20
644.5999999999999091
 10
153.2000000000000455
 20
644.5999999999999091
 10
152.4000000000000909
 20
643.7999999999999545
  0
LWPOLYLINE
  5
100
  8
3
 62
5
420
255
370
0
  6
CONTINUOUS
100
AcDbEntity
100
AcDbPolyline
 90
8
 70
1
 10
151.5
 20
798.9999999999997726
 10
151.5
 20
797.5999999999999091
 10
153.1999999999998181
 20
797.5999999999999091
 10
153.2000000000000455
 20
799.0
 10
156.0
 20
803.4999999999997726
 10
157.4000000000000909
 20
803.4999999999997726
 10
157.4000000000000909
 20
805.9999999999997726
 10
156.0
 20
805.9999999999997726
  0
LWPOLYLINE
  5
101
  8
3
 62
5
420
255
370
0
  6
CONTINUOUS
100
AcDbEntity
100
AcDbPolyline
 90
12
 70
1
 10
153.0
 20
799.0
 10
153.0
 20
797.5999999999999091
 10
156.0
 20
797.5999999999999091
 10
156.0
 20
794.0
 10
157.4000000000000909
 20
794.0
 10
157.4000000000000909
 20
797.5999999999999091
 10
158.5
 20
797.5999999999999091
 10
158.5
 20
798.9999999999997726
 10
157.4000000000000909
 20
799.0
 10
157.4000000000000909
 20
803.6999999999998181
 10
156.0
 20
803.6999999999998181
 10
156.0
 20
799.0
  0
LWPOLYLINE
  5
102
  8
3
 62
5
420
255
370
0
  6
CONTINUOUS
100
AcDbEntity
100
AcDbPolyline
 90
20
 70
1
 10
159.0
 20
959.3999999999998636
 10
159.0
 20
955.5999999999999091
 10
157.3999999999998636
 20
953.9999999999997726
 10
152.5999999999999091
 20
953.9999999999997726
 10
151.0
 20
955.5999999999999091
 10
151.0
 20
957.0
 10
152.4000000000000909
 20
957.0
 10
152.4000000000000909
 20
956.1999999999998181
 10
153.2000000000000455
 20
955.3999999999998636
 10
156.7999999999999545
 20
955.3999999999998636
 10
157.5999999999999091
 20
956.1999999999998181
 10
157.5999999999999091
 20
958.7999999999999545
 10
156.7999999999999545
 20
959.5999999999999091
 10
151.0
 20
959.5999999999999091
 10
151.0
 20
966.0
 10
159.0
 20
966.0
 10
159.0
 20
964.5999999999999091
 10
152.4000000000000909
 20
964.5999999999999091
 10
152.3999999999998636
 20
960.9999999999997726
 10
157.3999999999998636
 20
961.0
  0
LWPOLYLINE
  5
103
  8
3
 62
5
420
255
370
0
  6
CONTINUOUS
100
AcDbEntity
100
AcDbPolyline
 90
29
 70
1
 10
312.3999999999998636
 20
642.9999999999997726
 10
311.0
 20
642.9999999999997726
 10
311.0
 20
644.4000000000000909
 10
312.6000000000001364
 20
646.0
 10
317.3999999999998636
 20
645.9999999999997726
 10
319.0
 20
644.3999999999998636
 10
319.0
 20
641.2499999999997726
 10
317.7000000000000455
 20
640.0
 10
319.0
 20
638.7499999999997726
 10
319.0
 20
635.5999999999999091
 10
317.3999999999998636
 20
633.9999999999997726
 10
312.5999999999999091
 20
633.9999999999997726
 10
311.0
 20
635.5999999999999091
 10
311.0
 20
637.0
 10
312.4000000000000909
 20
637.0
 10
312.4000000000000909
 20
636.1999999999998181
 10
313.2000000000000455
 20
635.3999999999998636
 10
316.7999999999999545
 20
635.3999999999998636
 10
317.5999999999999091
 20
636.1999999999998181
 10
317.6000000000001364
 20
638.0999999999999091
 10
316.4000000000000909
 20
639.2999999999999545
 10
314.6999999999998181
 20
639.2999999999999545
 10
314.6999999999998181
 20
640.7000000000000455
 10
316.4000000000000909
 20
640.7000000000000455
 10
317.6000000000001364
 20
641.8999999999998636
 10
317.5999999999999091
 20
643.7999999999999545
 10
316.7999999999999545
 20
644.5999999999999091
 10
313.2000000000000455
 20
644.5999999999999091
 10
312.4000000000000909
 20
643.7999999999999545
  0
LWPOLYLINE
  5
104
  8
3
 62
5
420
255
370
0
  6
CONTINUOUS
100
AcDbEntity
100
AcDbPolyline
 90
8
 70
1
 10
311.5
 20
798.9999999999997726
 10
311.5
 20
797.5999999999999091
 10
313.1999999999998181
 20
797.5999999999999091
 10
313.2000000000000455
 20
799.0
 10
316.0
 20
803.4999999999997726
 10
317.4000000000000909
 20
803.4999999999997726
 10
317.4000000000000909
 20
805.9999999999997726
 10
316.0
 20
805.9999999999997726
  0
LWPOLYLINE
  5
105
  8
3
 62
5
420
255
370
0
  6
CONTINUOUS
100
AcDbEntity
100
AcDbPolyline
 90
12
 70
1
 10
313.0
 20
799.0
 10
313.0
 20
797.5999999999999091
 10
316.0
 20
797.5999999999999091
 10
316.0
 20
794.0
 10
317.4000000000000909
 20
794.0
 10
317.4000000000000909
 20
797.5999999999999091
 10
318.5
 20
797.5999999999999091
 10
318.5
 20
798.9999999999997726
 10
317.4000000000000909
 20
799.0
 10
317.4000000000000909
 20
803.6999999999998181
 10
316.0
 20
803.6999999999998181
 10
316.0
 20
799.0
  0
LWPOLYLINE
  5
106
  8
3
 62
5
420
255
370
0
  6
CONTINUOUS
100
AcDbEntity
100
AcDbPolyline
 90
20
 70
1
 10
319.0
 20
959.3999999999998636
 10
319.0
 20
955.5999999999999091
 10
317.3999999999998636
 20
953.9999999999997726
 10
312.5999999999999091
 20
953.9999999999997726
 10
311.0
 20
955.5999999999999091
 10
311.0
 20
957.0
 10
312.4000000000000909
 20
957.0
 10
312.4000000000000909
 20
956.1999999999998181
 10
313.2000000000000455
 20
955.3999999999998636
 10
316.7999999999999545
 20
955.3999999999998636
 10
317.5999999999999091
 20
956.1999999999998181
 10
317.5999999999999091
 20
958.7999999999999545
 10
316.7999999999999545
 20
959.5999999999999091
 10
311.0
 20
959.5999999999999091
 10
311.0
 20
966.0
 10
319.0
 20
966.0
 10
319.0
 20
964.5999999999999091
 10
312.4000000000000909
 20
964.5999999999999091
 10
312.3999999999998636
 20
960.9999999999997726
 10
317.3999999999998636
 20
961.0
  0
LWPOLYLINE
  5
107
  8
3
 62
5
420
255
370
0
  6
CONTINUOUS
100
AcDbEntity
100
AcDbPolyline
 90
29
 70
1
 10
472.3999999999998636
 20
642.9999999999997726
 10
471.0
 20
642.9999999999997726
 10
471.0
 20
644.4000000000000909
 10
472.6000000000001364
 20
646.0
 10
477.3999999999998636
 20
645.9999999999997726
 10
479.0
 20
644.3999999999998636
 10
479.0
 20
641.2499999999997726
 10
477.7000000000000455
 20
640.0
 10
479.0
 20
638.7499999999997726
 10
479.0
 20
635.5999999999999091
 10
477.3999999999998636
 20
633.9999999999997726
 10
472.5999999999999091
 20
633.9999999999997726
 10
471.0
 20
635.5999999999999091
 10
471.0
 20
637.0
 10
472.4000000000000909
 20
637.0
 10
472.4000000000000909
 20
636.1999999999998181
 10
473.2000000000000455
 20
635.3999999999998636
 10
476.7999999999999545
 20
635.3999999999998636
 10
477.5999999999999091
 20
636.1999999999998181
 10
477.6000000000001364
 20
638.0999999999999091
 10
476.4000000000000909
 20
639.2999999999999545
 10
474.6999999999998181
 20
639.2999999999999545
 10
474.6999999999998181
 20
640.7000000000000455
 10
476.4000000000000909
 20
640.7000000000000455
 10
477.6000000000001364
 20
641.8999999999998636
 10
477.5999999999999091
 20
643.7999999999999545
 10
476.7999999999999545
 20
644.5999999999999091
 10
473.2000000000000455
 20
644.5999999999999091
 10
472.4000000000000909
 20
643.7999999999999545
  0
LWPOLYLINE
  5
108
  8
3
 62
5
420
255
370
0
  6
CONTINUOUS
100
AcDbEntity
100
AcDbPolyline
 90
8
 70
1
 10
471.5
 20
798.9999999999997726
 10
471.5
 20
797.5999999999999091
 10
473.1999999999998181
 20
797.5999999999999091
 10
473.2000000000000455
 20
799.0
 10
476.0
 20
803.4999999999997726
 10
477.4000000000000909
 20
803.4999999999997726
 10
477.4000000000000909
 20
805.9999999999997726
 10
476.0
 20
805.9999999999997726
  0
LWPOLYLINE
  5
109
  8
3
 62
5
420
255
370
0
  6
CONTINUOUS
100
AcDbEntity
100
AcDbPolyline
 90
12
 70
1
 10
473.0
 20
799.0
 10
473.0
 20
797.5999999999999091
 10
476.0
 20
797.5999999999999091
 10
476.0
 20
794.0
 10
477.4000000000000909
 20
794.0
 10
477.4000000000000909
 20
797.5999999999999091
 10
478.5
 20
797.5999999999999091
 10
478.5
 20
798.9999999999997726
 10
477.4000000000000909
 20
799.0
 10
477.4000000000000909
 20
803.6999999999998181
 10
476.0
 20
803.6999999999998181
 10
476.0
 20
799.0
  0
LWPOLYLINE
  5
10A
  8
3
 62
5
420
255
370
0
  6
CONTINUOUS
100
AcDbEntity
100
AcDbPolyline
 90
20
 70
1
 10
479.0
 20
959.3999999999998636
 10
479.0
 20
955.5999999999999091
 10
477.3999999999998636
 20
953.9999999999997726
 10
472.5999999999999091
 20
953.9999999999997726
 10
471.0
 20
955.5999999999999091
 10
471.0
 20
957.0
 10
472.4000000000000909
 20
957.0
 10
472.4000000000000909
 20
956.1999999999998181
 10
473.2000000000000455
 20
955.3999999999998636
 10
476.7999999999999545
 20
955.3999999999998636
 10
477.5999999999999091
 20
956.1999999999998181
 10
477.5999999999999091
 20
958.7999999999999545
 10
476.7999999999999545
 20
959.5999999999999091
 10
471.0
 20
959.5999999999999091
 10
471.0
 20
966.0
 10
479.0
 20
966.0
 10
479.0
 20
964.5999999999999091
 10
472.4000000000000909
 20
964.5999999999999091
 10
472.3999999999998636
 20
960.9999999999997726
 10
477.3999999999998636
 20
961.0
  0
LWPOLYLINE
  5
10B
  8
3
 62
5
420
255
370
0
  6
CONTINUOUS
100
AcDbEntity
100
AcDbPolyline
 90
12
 70
1
 10
79.0
 20
564.0
 10
79.0
 20
561.0
 10
76.0
 20
561.0
 10
76.0
 20
559.0
 10
79.0
 20
559.0
 10
79.0
 20
556.0
 10
81.0
 20
556.0
 10
81.0
 20
559.0
 10
84.0
 20
559.0
 10
84.0
 20
561.0
 10
81.0
 20
561.0
 10
81.0
 20
564.0
  0
LWPOLYLINE
  5
10C
  8
3
 62
5
420
255
370
0
  6
CONTINUOUS
100
AcDbEntity
100
AcDbPolyline
 90
12
 70
1
 10
159.0
 20
564.0
 10
159.0
 20
561.0
 10
156.0
 20
561.0
 10
156.0
 20
559.0
 10
159.0
 20
559.0
 10
159.0
 20
556.0
 10
161.0
 20
556.0
 10
161.0
 20
559.0
 10
164.0
 20
559.0
 10
164.0
 20
561.0
 10
161.0
 20
561.0
 10
161.0
 20
564.0
  0
LWPOLYLINE
  5
10D
  8
3
 62
5
420
255
370
0
  6
CONTINUOUS
100
AcDbEntity
100
AcDbPolyline
 90
12
 70
1
 10
239.0
 20
564.0
 10
239.0
 20
561.0
 10
236.0
 20
561.0
 10
236.0
 20
559.0
 10
239.0
 20
559.0
 10
239.0
 20
556.0
 10
241.0
 20
556.0
 10
241.0
 20
559.0
 10
244.0
 20
559.0
 10
244.0
 20
561.0
 10
241.0
 20
561.0
 10
241.0
 20
564.0
  0
LWPOLYLINE
  5
10E
  8
3
 62
5
420
255
370
0
  6
CONTINUOUS
100
AcDbEntity
100
AcDbPolyline
 90
12
 70
1
 10
319.0
 20
564.0
 10
319.0
 20
561.0
 10
316.0
 20
561.0
 10
316.0
 20
559.0
 10
319.0
 20
559.0
 10
319.0
 20
556.0
 10
321.0
 20
556.0
 10
321.0
 20
559.0
 10
324.0
 20
559.0
 10
324.0
 20
561.0
 10
321.0
 20
561.0
 10
321.0
 20
564.0
  0
LWPOLYLINE
  5
10F
  8
3
 62
5
420
255
370
0
  6
CONTINUOUS
100
AcDbEntity
100
AcDbPolyline
 90
12
 70
1
 10
399.0
 20
564.0
 10
399.0
 20
561.0
 10
396.0
 20
561.0
 10
396.0
 20
559.0
 10
399.0
 20
559.0
 10
399.0
 20
556.0
 10
401.0
 20
556.0
 10
401.0
 20
559.0
 10
404.0
 20
559.0
 10
404.0
 20
561.0
 10
401.0
 20
561.0
 10
401.0
 20
564.0
  0
LWPOLYLINE
  5
110
  8
3
 62
5
420
255
370
0
  6
CONTINUOUS
100
AcDbEntity
100
AcDbPolyline
 90
12
 70
1
 10
479.0
 20
564.0
 10
479.0
 20
561.0
 10
476.0
 20
561.0
 10
476.0
 20
559.0
 10
479.0
 20
559.0
 10
479.0
 20
556.0
 10
481.0
 20
556.0
 10
481.0
 20
559.0
 10
484.0
 20
559.0
 10
484.0
 20
561.0
 10
481.0
 20
561.0
 10
481.0
 20
564.0
  0
LWPOLYLINE
  5
111
  8
3
 62
5
420
255
370
0
  6
CONTINUOUS
100
AcDbEntity
100
AcDbPolyline
 90
12
 70
1
 10
79.0
 20
644.0
 10
79.0
 20
641.0
 10
76.0
 20
641.0
 10
76.0
 20
639.0
 10
79.0
 20
639.0
 10
79.0
 20
636.0
 10
81.0
 20
636.0
 10
81.0
 20
639.0
 10
84.0
 20
639.0
 10
84.0
 20
641.0
 10
81.0
 20
641.0
 10
81.0
 20
644.0
  0
LWPOLYLINE
  5
112
  8
3
 62
5
420
255
370
0
  6
CONTINUOUS
100
AcDbEntity
100
AcDbPolyline
 90
12
 70
1
 10
239.0
 20
644.0
 10
239.0
 20
641.0
 10
236.0
 20
641.0
 10
236.0
 20
639.0
 10
239.0
 20
639.0
 10
239.0
 20
636.0
 10
241.0
 20
636.0
 10
241.0
 20
639.0
 10
244.0
 20
639.0
 10
244.0
 20
641.0
 10
241.0
 20
641.0
 10
241.0
 20
644.0
  0
LWPOLYLINE
  5
113
  8
3
 62
5
420
255
370
0
  6
CONTINUOUS
100
AcDbEntity
100
AcDbPolyline
 90
12
 70
1
 10
399.0
 20
644.0
 10
399.0
 20
641.0
 10
396.0
 20
641.0
 10
396.0
 20
639.0
 10
399.0
 20
639.0
 10
399.0
 20
636.0
 10
401.0
 20
636.0
 10
401.0
 20
639.0
 10
404.0
 20
639.0
 10
404.0
 20
641.0
 10
401.0
 20
641.0
 10
401.0
 20
644.0
  0
LWPOLYLINE
  5
114
  8
3
 62
5
420
255
370
0
  6
CONTINUOUS
100
AcDbEntity
100
AcDbPolyline
 90
12
 70
1
 10
79.0
 20
724.0
 10
79.0
 20
721.0
 10
76.0
 20
721.0
 10
76.0
 20
719.0
 10
79.0
 20
719.0
 10
79.0
 20
716.0
 10
81.0
 20
716.0
 10
81.0
 20
719.0
 10
84.0
 20
719.0
 10
84.0
 20
721.0
 10
81.0
 20
721.0
 10
81.0
 20
724.0
  0
LWPOLYLINE
  5
115
  8
3
 62
5
420
255
370
0
  6
CONTINUOUS
100
AcDbEntity
100
AcDbPolyline
 90
12
 70
1
 10
239.0
 20
724.0
 10
239.0
 20
721.0
 10
236.0
 20
721.0
 10
236.0
 20
719.0
 10
239.0
 20
719.0
 10
239.0
 20
716.0
 10
241.0
 20
716.0
 10
241.0
 20
719.0
 10
244.0
 20
719.0
 10
244.0
 20
721.0
 10
241.0
 20
721.0
 10
241.0
 20
724.0
  0
LWPOLYLINE
  5
116
  8
3
 62
5
420
255
370
0
  6
CONTINUOUS
100
AcDbEntity
100
AcDbPolyline
 90
12
 70
1
 10
399.0
 20
724.0
 10
399.0
 20
721.0
 10
396.0
 20
721.0
 10
396.0
 20
719.0
 10
399.0
 20
719.0
 10
399.0
 20
716.0
 10
401.0
 20
716.0
 10
401.0
 20
719.0
 10
404.0
 20
719.0
 10
404.0
 20
721.0
 10
401.0
 20
721.0
 10
401.0
 20
724.0
  0
LWPOLYLINE
  5
117
  8
3
 62
5
420
255
370
0
  6
CONTINUOUS
100
AcDbEntity
100
AcDbPolyline
 90
12
 70
1
 10
79.0
 20
804.0
 10
79.0
 20
801.0
 10
76.0
 20
801.0
 10
76.0
 20
799.0
 10
79.0
 20
799.0
 10
79.0
 20
796.0
 10
81.0
 20
796.0
 10
81.0
 20
799.0
 10
84.0
 20
799.0
 10
84.0
 20
801.0
 10
81.0
 20
801.0
 10
81.0
 20
804.0
  0
LWPOLYLINE
  5
118
  8
3
 62
5
420
255
370
0
  6
CONTINUOUS
100
AcDbEntity
100
AcDbPolyline
 90
12
 70
1
 10
239.0
 20
804.0
 10
239.0
 20
801.0
 10
236.0
 20
801.0
 10
236.0
 20
799.0
 10
239.0
 20
799.0
 10
239.0
 20
796.0
 10
241.0
 20
796.0
 10
241.0
 20
799.0
 10
244.0
 20
799.0
 10
244.0
 20
801.0
 10
241.0
 20
801.0
 10
241.0
 20
804.0
  0
LWPOLYLINE
  5
119
  8
3
 62
5
420
255
370
0
  6
CONTINUOUS
100
AcDbEntity
100
AcDbPolyline
 90
12
 70
1
 10
399.0
 20
804.0
 10
399.0
 20
801.0
 10
396.0
 20
801.0
 10
396.0
 20
799.0
 10
399.0
 20
799.0
 10
399.0
 20
796.0
 10
401.0
 20
796.0
 10
401.0
 20
799.0
 10
404.0
 20
799.0
 10
404.0
 20
801.0
 10
401.0
 20
801.0
 10
401.0
 20
804.0
  0
LWPOLYLINE
  5
11A
  8
3
 62
5
420
255
370
0
  6
CONTINUOUS
100
AcDbEntity
100
AcDbPolyline
 90
12
 70
1
 10
79.0
 20
884.0
 10
79.0
 20
881.0
 10
76.0
 20
881.0
 10
76.0
 20
879.0
 10
79.0
 20
879.0
 10
79.0
 20
876.0
 10
81.0
 20
876.0
 10
81.0
 20
879.0
 10
84.0
 20
879.0
 10
84.0
 20
881.0
 10
81.0
 20
881.0
 10
81.0
 20
884.0
  0
LWPOLYLINE
  5
11B
  8
3
 62
5
420
255
370
0
  6
CONTINUOUS
100
AcDbEntity
100
AcDbPolyline
 90
12
 70
1
 10
239.0
 20
884.0
 10
239.0
 20
881.0
 10
236.0
 20
881.0
 10
236.0
 20
879.0
 10
239.0
 20
879.0
 10
239.0
 20
876.0
 10
241.0
 20
876.0
 10
241.0
 20
879.0
 10
244.0
 20
879.0
 10
244.0
 20
881.0
 10
241.0
 20
881.0
 10
241.0
 20
884.0
  0
LWPOLYLINE
  5
11C
  8
3
 62
5
420
255
370
0
  6
CONTINUOUS
100
AcDbEntity
100
AcDbPolyline
 90
12
 70
1
 10
399.0
 20
884.0
 10
399.0
 20
881.0
 10
396.0
 20
881.0
 10
396.0
 20
879.0
 10
399.0
 20
879.0
 10
399.0
 20
876.0
 10
401.0
 20
876.0
 10
401.0
 20
879.0
 10
404.0
 20
879.0
 10
404.0
 20
881.0
 10
401.0
 20
881.0
 10
401.0
 20
884.0
  0
LWPOLYLINE
  5
11D
  8
3
 62
5
420
255
370
0
  6
CONTINUOUS
100
AcDbEntity
100
AcDbPolyline
 90
12
 70
1
 10
79.0
 20
964.0
 10
79.0
 20
961.0
 10
76.0
 20
961.0
 10
76.0
 20
959.0
 10
79.0
 20
959.0
 10
79.0
 20
956.0
 10
81.0
 20
956.0
 10
81.0
 20
959.0
 10
84.0
 20
959.0
 10
84.0
 20
961.0
 10
81.0
 20
961.0
 10
81.0
 20
964.0
  0
LWPOLYLINE
  5
11E
  8
3
 62
5
420
255
370
0
  6
CONTINUOUS
100
AcDbEntity
100
AcDbPolyline
 90
12
 70
1
 10
239.0
 20
964.0
 10
239.0
 20
961.0
 10
236.0
 20
961.0
 10
236.0
 20
959.0
 10
239.0
 20
959.0
 10
239.0
 20
956.0
 10
241.0
 20
956.0
 10
241.0
 20
959.0
 10
244.0
 20
959.0
 10
244.0
 20
961.0
 10
241.0
 20
961.0
 10
241.0
 20
964.0
  0
LWPOLYLINE
  5
11F
  8
3
 62
5
420
255
370
0
  6
CONTINUOUS
100
AcDbEntity
100
AcDbPolyline
 90
12
 70
1
 10
399.0
 20
964.0
 10
399.0
 20
961.0
 10
396.0
 20
961.0
 10
396.0
 20
959.0
 10
399.0
 20
959.0
 10
399.0
 20
956.0
 10
401.0
 20
956.0
 10
401.0
 20
959.0
 10
404.0
 20
959.0
 10
404.0
 20
961.0
 10
401.0
 20
961.0
 10
401.0
 20
964.0
  0
LWPOLYLINE
  5
120
  8
3
 62
5
420
255
370
0
  6
CONTINUOUS
100
AcDbEntity
100
AcDbPolyline
 90
12
 70
1
 10
79.0
 20
1044.0
 10
79.0
 20
1041.0
 10
76.0
 20
1041.0
 10
76.0
 20
1039.0
 10
79.0
 20
1039.0
 10
79.0
 20
1036.0
 10
81.0
 20
1036.0
 10
81.0
 20
1039.0
 10
84.0
 20
1039.0
 10
84.0
 20
1041.0
 10
81.0
 20
1041.0
 10
81.0
 20
1044.0
  0
LWPOLYLINE
  5
121
  8
3
 62
5
420
255
370
0
  6
CONTINUOUS
100
AcDbEntity
100
AcDbPolyline
 90
12
 70
1
 10
159.0
 20
1044.0
 10
159.0
 20
1041.0
 10
156.0
 20
1041.0
 10
156.0
 20
1039.0
 10
159.0
 20
1039.0
 10
159.0
 20
1036.0
 10
161.0
 20
1036.0
 10
161.0
 20
1039.0
 10
164.0
 20
1039.0
 10
164.0
 20
1041.0
 10
161.0
 20
1041.0
 10
161.0
 20
1044.0
  0
LWPOLYLINE
  5
122
  8
3
 62
5
420
255
370
0
  6
CONTINUOUS
100
AcDbEntity
100
AcDbPolyline
 90
12
 70
1
 10
239.0
 20
1044.0
 10
239.0
 20
1041.0
 10
236.0
 20
1041.0
 10
236.0
 20
1039.0
 10
239.0
 20
1039.0
 10
239.0
 20
1036.0
 10
241.0
 20
1036.0
 10
241.0
 20
1039.0
 10
244.0
 20
1039.0
 10
244.0
 20
1041.0
 10
241.0
 20
1041.0
 10
241.0
 20
1044.0
  0
LWPOLYLINE
  5
123
  8
3
 62
5
420
255
370
0
  6
CONTINUOUS
100
AcDbEntity
100
AcDbPolyline
 90
12
 70
1
 10
319.0
 20
1044.0
 10
319.0
 20
1041.0
 10
316.0
 20
1041.0
 10
316.0
 20
1039.0
 10
319.0
 20
1039.0
 10
319.0
 20
1036.0
 10
321.0
 20
1036.0
 10
321.0
 20
1039.0
 10
324.0
 20
1039.0
 10
324.0
 20
1041.0
 10
321.0
 20
1041.0
 10
321.0
 20
1044.0
  0
LWPOLYLINE
  5
124
  8
3
 62
5
420
255
370
0
  6
CONTINUOUS
100
AcDbEntity
100
AcDbPolyline
 90
12
 70
1
 10
399.0
 20
1044.0
 10
399.0
 20
1041.0
 10
396.0
 20
1041.0
 10
396.0
 20
1039.0
 10
399.0
 20
1039.0
 10
399.0
 20
1036.0
 10
401.0
 20
1036.0
 10
401.0
 20
1039.0
 10
404.0
 20
1039.0
 10
404.0
 20
1041.0
 10
401.0
 20
1041.0
 10
401.0
 20
1044.0
  0
LWPOLYLINE
  5
125
  8
3
 62
5
420
255
370
0
  6
CONTINUOUS
100
AcDbEntity
100
AcDbPolyline
 90
12
 70
1
 10
479.0
 20
1044.0
 10
479.0
 20
1041.0
 10
476.0
 20
1041.0
 10
476.0
 20
1039.0
 10
479.0
 20
1039.0
 10
479.0
 20
1036.0
 10
481.0
 20
1036.0
 10
481.0
 20
1039.0
 10
484.0
 20
1039.0
 10
484.0
 20
1041.0
 10
481.0
 20
1041.0
 10
481.0
 20
1044.0
  0
LWPOLYLINE
  5
126
  8
3
 62
5
420
255
370
0
  6
CONTINUOUS
100
AcDbEntity
100
AcDbPolyline
 90
12
 70
1
 10
159.0
 20
724.0
 10
159.0
 20
721.0
 10
156.0
 20
721.0
 10
156.0
 20
719.0
 10
159.0
 20
719.0
 10
159.0
 20
716.0
 10
161.0
 20
716.0
 10
161.0
 20
719.0
 10
164.0
 20
719.0
 10
164.0
 20
721.0
 10
161.0
 20
721.0
 10
161.0
 20
724.0
  0
LWPOLYLINE
  5
127
  8
3
 62
5
420
255
370
0
  6
CONTINUOUS
100
AcDbEntity
100
AcDbPolyline
 90
12
 70
1
 10
319.0
 20
724.0
 10
319.0
 20
721.0
 10
316.0
 20
721.0
 10
316.0
 20
719.0
 10
319.0
 20
719.0
 10
319.0
 20
716.0
 10
321.0
 20
716.0
 10
321.0
 20
719.0
 10
324.0
 20
719.0
 10
324.0
 20
721.0
 10
321.0
 20
721.0
 10
321.0
 20
724.0
  0
LWPOLYLINE
  5
128
  8
3
 62
5
420
255
370
0
  6
CONTINUOUS
100
AcDbEntity
100
AcDbPolyline
 90
12
 70
1
 10
479.0
 20
724.0
 10
479.0
 20
721.0
 10
476.0
 20
721.0
 10
476.0
 20
719.0
 10
479.0
 20
719.0
 10
479.0
 20
716.0
 10
481.0
 20
716.0
 10
481.0
 20
719.0
 10
484.0
 20
719.0
 10
484.0
 20
721.0
 10
481.0
 20
721.0
 10
481.0
 20
724.0
  0
LWPOLYLINE
  5
129
  8
3
 62
5
420
255
370
0
  6
CONTINUOUS
100
AcDbEntity
100
AcDbPolyline
 90
12
 70
1
 10
159.0
 20
884.0
 10
159.0
 20
881.0
 10
156.0
 20
881.0
 10
156.0
 20
879.0
 10
159.0
 20
879.0
 10
159.0
 20
876.0
 10
161.0
 20
876.0
 10
161.0
 20
879.0
 10
164.0
 20
879.0
 10
164.0
 20
881.0
 10
161.0
 20
881.0
 10
161.0
 20
884.0
  0
LWPOLYLINE
  5
12A
  8
3
 62
5
420
255
370
0
  6
CONTINUOUS
100
AcDbEntity
100
AcDbPolyline
 90
12
 70
1
 10
319.0
 20
884.0
 10
319.0
 20
881.0
 10
316.0
 20
881.0
 10
316.0
 20
879.0
 10
319.0
 20
879.0
 10
319.0
 20
876.0
 10
321.0
 20
876.0
 10
321.0
 20
879.0
 10
324.0
 20
879.0
 10
324.0
 20
881.0
 10
321.0
 20
881.0
 10
321.0
 20
884.0
  0
LWPOLYLINE
  5
12B
  8
3
 62
5
420
255
370
0
  6
CONTINUOUS
100
AcDbEntity
100
AcDbPolyline
 90
12
 70
1
 10
479.0
 20
884.0
 10
479.0
 20
881.0
 10
476.0
 20
881.0
 10
476.0
 20
879.0
 10
479.0
 20
879.0
 10
479.0
 20
876.0
 10
481.0
 20
876.0
 10
481.0
 20
879.0
 10
484.0
 20
879.0
 10
484.0
 20
881.0
 10
481.0
 20
881.0
 10
481.0
 20
884.0
  0
LWPOLYLINE
  5
12C
  8
0
 62
2
420
16776960
370
-1
  6
ByLayer
100
AcDbEntity
100
AcDbPolyline
 90
4
 70
1
 10
500.0
 20
-60.0
 10
-60.0
 20
-60.0
 10
-60.0
 20
500.0
 10
500.0
 20
500.0
  0
LWPOLYLINE
  5
12D
  8
1
 62
2
420
16776960
370
-1
  6
ByLayer
100
AcDbEntity
100
AcDbPolyline
 90
4
 70
1
 10
1060.0
 20
-60.0
 10
500.0
 20
-60.0
 10
500.0
 20
500.0
 10
1060.0
 20
500.0
  0
LWPOLYLINE
  5
12E
  8
2
 62
2
420
16776960
370
-1
  6
ByLayer
100
AcDbEntity
100
AcDbPolyline
 90
4
 70
1
 10
1060.0
 20
500.0
 10
500.0
 20
500.0
 10
500.0
 20
1060.0
 10
1060.0
 20
1060.0
  0
LWPOLYLINE
  5
12F
  8
3
 62
2
420
16776960
370
-1
  6
ByLayer
100
AcDbEntity
100
AcDbPolyline
 90
4
 70
1
 10
500.0
 20
500.0
 10
-60.0
 20
500.0
 10
-60.0
 20
1060.0
 10
500.0
 20
1060.0
  0
ENDSEC
  0
SECTION
  2
OBJECTS
  0
DICTIONARY
  5
C
100
AcDbDictionary
280
0
281
1
  3
ACAD_GROUP
350
D
  3
ACAD_LAYOUT
350
1A
  3
ACAD_MLINESTYLE
350
17
  3
ACAD_PLOTSETTINGS
350
19
  3
ACAD_PLOTSTYLENAME
350
E
  3
AcDbVariableDictionary
350
130
  0
DICTIONARY
  5
D
100
AcDbDictionary
280
0
281
1
  0
ACDBDICTIONARYWDFLT
  5
E
100
AcDbDictionary
281
1
  3
Normal
350
F
100
AcDbDictionaryWithDefault
340
F
  0
ACDBPLACEHOLDER
  5
F
  0
DICTIONARY
  5
17
100
AcDbDictionary
280
0
281
1
  3
Standard
350
18
  0
MLINESTYLE
  5
18
100
AcDbMlineStyle
  2
STANDARD
 70
0
  3

 62
256
 51
90.0
 52
90.0
 71
2
 49
0.5
 62
256
  6
BYLAYER
 49
-0.5
 62
256
  6
BYLAYER
  0
DICTIONARY
  5
19
100
AcDbDictionary
280
0
281
1
  0
DICTIONARY
  5
1A
100
AcDbDictionary
281
1
  3
Layout1
350
1E
  3
Layout2
350
26
  3
Model
350
22
  0
LAYOUT
  5
1E
100
AcDbPlotSettings
  1

  2
C:\Program Files\AutoCAD 2002\plotters\DWF ePlot (optimized for plotting).pc3
  4

  6

 40
0.0
 41
0.0
 42
0.0
 43
0.0
 44
0.0
 45
0.0
 46
0.0
 47
0.0
 48
0.0
 49
0.0
140
0.0
141
0.0
142
1.0
143
1.0
 70
688
 72
0
 73
0
 74
5
  7

 75
16
147
1.0
148
0.0
149
0.0
100
AcDbLayout
  1
Layout1
 70
1
 71
1
 10
0.0
 20
0.0
 11
420.0
 21
297.0
 12
0.0
 22
0.0
 32
0.0
 14
100000000000000000000.0
 24
100000000000000000000.0
 34
100000000000000000000.0
 15
-100000000000000000000.0
 25
-100000000000000000000.0
 35
-100000000000000000000.0
146
0.0
 13
0.0
 23
0.0
 33
0.0
 16
1.0
 26
0.0
 36
0.0
 17
0.0
 27
1.0
 37
0.0
 76
0
330
1B
  0
LAYOUT
  5
22
100
AcDbPlotSettings
  1

  2
C:\Program Files\AutoCAD 2002\plotters\DWF ePlot (optimized for plotting).pc3
  4

  6

 40
0.0
 41
0.0
 42
0.0
 43
0.0
 44
0.0
 45
0.0
 46
0.0
 47
0.0
 48
0.0
 49
0.0
140
0.0
141
0.0
142
1.0
143
1.0
 70
1712
 72
0
 73
0
 74
0
  7

 75
0
147
1.0
148
0.0
149
0.0
100
AcDbLayout
  1
Model
 70
1
 71
0
 10
0.0
 20
0.0
 11
12.0
 21
9.0
 12
0.0
 22
0.0
 32
0.0
 14
0.0
 24
0.0
 34
0.0
 15
0.0
 25
0.0
 35
0.0
146
0.0
 13
0.0
 23
0.0
 33
0.0
 16
1.0
 26
0.0
 36
0.0
 17
0.0
 27
1.0
 37
0.0
 76
0
330
1F
  0
LAYOUT
  5
26
100
AcDbPlotSettings
  1

  2
C:\Program Files\AutoCAD 2002\plotters\DWF ePlot (optimized for plotting).pc3
  4

  6

 40
0.0
 41
0.0
 42
0.0
 43
0.0
 44
0.0
 45
0.0
 46
0.0
 47
0.0
 48
0.0
 49
0.0
140
0.0
141
0.0
142
1.0
143
1.0
 70
688
 72
0
 73
0
 74
5
  7

 75
16
147
1.0
148
0.0
149
0.0
100
AcDbLayout
  1
Layout2
 70
1
 71
2
 10
0.0
 20
0.0
 11
12.0
 21
9.0
 12
0.0
 22
0.0
 32
0.0
 14
0.0
 24
0.0
 34
0.0
 15
0.0
 25
0.0
 35
0.0
146
0.0
 13
0.0
 23
0.0
 33
0.0
 16
1.0
 26
0.0
 36
0.0
 17
0.0
 27
1.0
 37
0.0
 76
0
330
23
  0
DICTIONARY
  5
130
100
AcDbDictionary
281
1
  3
DIMASSOC
350
132
  3
HIDETEXT
350
131
  0
DICTIONARYVAR
  5
131
100
DictionaryVariables
280
0
  1
2
  0
DICTIONARYVAR
  5
132
100
DictionaryVariables
280
0
  1
1
  0
ENDSEC
  0
EOF
